  0
SECTION
  2
HEADER
  9
$ACADVER
  1
AC1014
  9
$ACADMAINTVER
 70
     5
  9
$DWGCODEPAGE
  3
ANSI_1252
  9
$INSBASE
 10
392.9
 20
343.6
 30
-0.421745
  9
$EXTMIN
 10
153.587365
 20
343.442511
 30
-0.42177
  9
$EXTMAX
 10
632.17102
 20
1049.8689
 30
0.000039
  9
$LIMMIN
 10
0.0
 20
0.0
  9
$LIMMAX
 10
3360.0
 20
2376.0
  9
$ORTHOMODE
 70
     1
  9
$REGENMODE
 70
     1
  9
$FILLMODE
 70
     1
  9
$QTEXTMODE
 70
     0
  9
$MIRRTEXT
 70
     0
  9
$DRAGMODE
 70
     2
  9
$LTSCALE
 40
1.0
  9
$OSMODE
 70
     0
  9
$ATTMODE
 70
     1
  9
$TEXTSIZE
 40
3.5
  9
$TRACEWID
 40
0.05
  9
$TEXTSTYLE
  7
ROMANS
  9
$CLAYER
  8
035-DWG
  9
$CELTYPE
  6
BYLAYER
  9
$CECOLOR
 62
   256
  9
$CELTSCALE
 40
1.0
  9
$DELOBJ
 70
     1
  9
$DISPSILH
 70
     0
  9
$DIMSCALE
 40
8.0
  9
$DIMASZ
 40
2.5
  9
$DIMEXO
 40
1.5
  9
$DIMDLI
 40
5.0
  9
$DIMRND
 40
0.0
  9
$DIMDLE
 40
0.0
  9
$DIMEXE
 40
1.0
  9
$DIMTP
 40
0.0
  9
$DIMTM
 40
0.0
  9
$DIMTXT
 40
3.0
  9
$DIMCEN
 40
-2.0
  9
$DIMTSZ
 40
0.0
  9
$DIMTOL
 70
     0
  9
$DIMLIM
 70
     0
  9
$DIMTIH
 70
     0
  9
$DIMTOH
 70
     0
  9
$DIMSE1
 70
     0
  9
$DIMSE2
 70
     0
  9
$DIMTAD
 70
     1
  9
$DIMZIN
 70
     8
  9
$DIMBLK
  1

  9
$DIMASO
 70
     1
  9
$DIMSHO
 70
     1
  9
$DIMPOST
  1

  9
$DIMAPOST
  1

  9
$DIMALT
 70
     0
  9
$DIMALTD
 70
     2
  9
$DIMALTF
 40
25.4
  9
$DIMLFAC
 40
1.0
  9
$DIMTOFL
 70
     1
  9
$DIMTVP
 40
0.0
  9
$DIMTIX
 70
     0
  9
$DIMSOXD
 70
     0
  9
$DIMSAH
 70
     0
  9
$DIMBLK1
  1

  9
$DIMBLK2
  1

  9
$DIMSTYLE
  2
STANDAARD
  9
$DIMCLRD
 70
   256
  9
$DIMCLRE
 70
   256
  9
$DIMCLRT
 70
   256
  9
$DIMTFAC
 40
0.75
  9
$DIMGAP
 40
1.5
  9
$DIMJUST
 70
     0
  9
$DIMSD1
 70
     0
  9
$DIMSD2
 70
     0
  9
$DIMTOLJ
 70
     1
  9
$DIMTZIN
 70
     8
  9
$DIMALTZ
 70
     8
  9
$DIMALTTZ
 70
     8
  9
$DIMFIT
 70
     3
  9
$DIMUPT
 70
     0
  9
$DIMUNIT
 70
     2
  9
$DIMDEC
 70
     0
  9
$DIMTDEC
 70
     1
  9
$DIMALTU
 70
     2
  9
$DIMALTTD
 70
     2
  9
$DIMTXSTY
  7
ROMANS
  9
$DIMAUNIT
 70
     0
  9
$LUNITS
 70
     2
  9
$LUPREC
 70
     4
  9
$SKETCHINC
 40
0.1
  9
$FILLETRAD
 40
1.0
  9
$AUNITS
 70
     0
  9
$AUPREC
 70
     4
  9
$MENU
  1
wtb2
  9
$ELEVATION
 40
0.0
  9
$PELEVATION
 40
0.0
  9
$THICKNESS
 40
0.0
  9
$LIMCHECK
 70
     0
  9
$BLIPMODE
 70
     0
  9
$CHAMFERA
 40
0.0
  9
$CHAMFERB
 40
0.0
  9
$CHAMFERC
 40
0.0
  9
$CHAMFERD
 40
0.0
  9
$SKPOLY
 70
     0
  9
$TDCREATE
 40
2451578.409790035
  9
$TDUPDATE
 40
2452584.355191053
  9
$TDINDWG
 40
2.5832886574
  9
$TDUSRTIMER
 40
2.5832886574
  9
$USRTIMER
 70
     1
  9
$ANGBASE
 50
0.0
  9
$ANGDIR
 70
     0
  9
$PDMODE
 70
     3
  9
$PDSIZE
 40
0.0
  9
$PLINEWID
 40
0.0
  9
$COORDS
 70
     2
  9
$SPLFRAME
 70
     0
  9
$SPLINETYPE
 70
     6
  9
$SPLINESEGS
 70
     8
  9
$ATTDIA
 70
     0
  9
$ATTREQ
 70
     1
  9
$HANDLING
 70
     1
  9
$HANDSEED
  5
434
  9
$SURFTAB1
 70
     6
  9
$SURFTAB2
 70
     6
  9
$SURFTYPE
 70
     6
  9
$SURFU
 70
     6
  9
$SURFV
 70
     6
  9
$UCSNAME
  2

  9
$UCSORG
 10
0.0
 20
0.0
 30
0.0
  9
$UCSXDIR
 10
1.0
 20
0.0
 30
0.0
  9
$UCSYDIR
 10
0.0
 20
1.0
 30
0.0
  9
$PUCSNAME
  2

  9
$PUCSORG
 10
0.0
 20
0.0
 30
0.0
  9
$PUCSXDIR
 10
1.0
 20
0.0
 30
0.0
  9
$PUCSYDIR
 10
0.0
 20
1.0
 30
0.0
  9
$USERI1
 70
     0
  9
$USERI2
 70
     0
  9
$USERI3
 70
     0
  9
$USERI4
 70
     0
  9
$USERI5
 70
     0
  9
$USERR1
 40
0.0
  9
$USERR2
 40
0.0
  9
$USERR3
 40
0.0
  9
$USERR4
 40
0.0
  9
$USERR5
 40
0.0
  9
$WORLDVIEW
 70
     1
  9
$SHADEDGE
 70
     3
  9
$SHADEDIF
 70
    70
  9
$TILEMODE
 70
     1
  9
$MAXACTVP
 70
    16
  9
$PINSBASE
 10
0.0
 20
0.0
 30
0.0
  9
$PLIMCHECK
 70
     0
  9
$PEXTMIN
 10
1.000000E+20
 20
1.000000E+20
 30
1.000000E+20
  9
$PEXTMAX
 10
-1.000000E+20
 20
-1.000000E+20
 30
-1.000000E+20
  9
$PLIMMIN
 10
0.0
 20
0.0
  9
$PLIMMAX
 10
12.0
 20
9.0
  9
$UNITMODE
 70
     0
  9
$VISRETAIN
 70
     0
  9
$PLINEGEN
 70
     0
  9
$PSLTSCALE
 70
     0
  9
$TREEDEPTH
 70
  3020
  9
$PICKSTYLE
 70
     1
  9
$CMLSTYLE
  2
STANDARD
  9
$CMLJUST
 70
     0
  9
$CMLSCALE
 40
1.0
  9
$PROXYGRAPHICS
 70
     1
  9
$MEASUREMENT
 70
     0
  0
ENDSEC
  0
SECTION
  2
CLASSES
  0
CLASS
  1
LWPOLYLINE
  2
AcDbPolyline
  3
"AutoCAD"
 90
        0
280
     0
281
     1
  0
CLASS
  1
HATCH
  2
AcDbHatch
  3
"ACAD_SEDONA"
 90
        0
280
     0
281
     1
  0
CLASS
  1
ACMDATUMID
  2
AcmDatumId
  3
AutoCadMServices
 90
      255
280
     1
281
     1
  0
CLASS
  1
ACMFCFRAME
  2
AcmFCF
  3
AutoCadMServices
 90
      255
280
     1
281
     1
  0
CLASS
  1
AMLOADER
  2
AMLoader
  3
AMAcad
 90
        0
280
     0
281
     0
  0
ENDSEC
  0
SECTION
  2
TABLES
  0
TABLE
  2
VPORT
  5
12
100
AcDbSymbolTable
 70
     2
  0
VPORT
  5
433
100
AcDbSymbolTableRecord
100
AcDbViewportTableRecord
  2
*ACTIVE
 70
     0
 10
0.0
 20
0.0
 11
1.0
 21
1.0
 12
392.879192
 22
696.655706
 13
0.0
 23
0.0
 14
20.0
 24
20.0
 15
40.0
 25
40.0
 16
0.0
 26
0.0
 36
1.0
 17
0.0
 27
0.0
 37
0.0
 40
714.378657
 41
1.650376
 42
50.0
 43
0.0
 44
0.0
 50
0.0
 51
0.0
 71
     0
 72
 20000
 73
     1
 74
     0
 75
     0
 76
     0
 77
     0
 78
     1
  0
ENDTAB
  0
TABLE
  2
LTYPE
  5
D
100
AcDbSymbolTable
 70
     1
  0
LTYPE
  5
E
100
AcDbSymbolTableRecord
100
AcDbLinetypeTableRecord
  2
BYBLOCK
 70
     0
  3

 72
    65
 73
     0
 40
0.0
  0
LTYPE
  5
F
100
AcDbSymbolTableRecord
100
AcDbLinetypeTableRecord
  2
BYLAYER
 70
     0
  3

 72
    65
 73
     0
 40
0.0
  0
LTYPE
  5
5
100
AcDbSymbolTableRecord
100
AcDbLinetypeTableRecord
  2
CONTINUOUS
 70
     0
  3
Solid line
 72
    65
 73
     0
 40
0.0
  0
ENDTAB
  0
TABLE
  2
LAYER
  5
A
100
AcDbSymbolTable
 70
     3
  0
LAYER
  5
4
100
AcDbSymbolTableRecord
100
AcDbLayerTableRecord
  2
0
 70
     0
 62
     8
  6
CONTINUOUS
  0
LAYER
  5
20
100
AcDbSymbolTableRecord
100
AcDbLayerTableRecord
  2
025-DWG
 70
     0
 62
     7
  6
CONTINUOUS
  0
LAYER
  5
1B
100
AcDbSymbolTableRecord
100
AcDbLayerTableRecord
  2
035-DWG
 70
     0
 62
     2
  6
CONTINUOUS
  0
ENDTAB
  0
TABLE
  2
STYLE
  5
B
100
AcDbSymbolTable
 70
     2
  0
STYLE
  5
C
100
AcDbSymbolTableRecord
100
AcDbTextStyleTableRecord
  2
STANDARD
 70
     0
 40
0.0
 41
1.0
 50
0.0
 71
     0
 42
15.0
  3
txt
  4

  0
STYLE
  5
1C
100
AcDbSymbolTableRecord
100
AcDbTextStyleTableRecord
  2
ROMANS
 70
     0
 40
0.0
 41
1.0
 50
0.0
 71
     0
 42
3.5
  3
romans
  4

  0
ENDTAB
  0
TABLE
  2
VIEW
  5
10
100
AcDbSymbolTable
 70
     0
  0
ENDTAB
  0
TABLE
  2
UCS
  5
11
100
AcDbSymbolTable
 70
     0
  0
ENDTAB
  0
TABLE
  2
APPID
  5
14
100
AcDbSymbolTable
 70
     1
  0
APPID
  5
15
100
AcDbSymbolTableRecord
100
AcDbRegAppTableRecord
  2
ACAD
 70
     0
  0
ENDTAB
  0
TABLE
  2
DIMSTYLE
  5
16
100
AcDbSymbolTable
 70
     1
  0
DIMSTYLE
105
1E
100
AcDbSymbolTableRecord
100
AcDbDimStyleTableRecord
  2
STANDAARD
 70
     0
  3

  4

  5

  6

  7

 40
8.0
 41
2.5
 42
1.5
 43
5.0
 44
1.0
 45
0.0
 46
0.0
 47
0.0
 48
0.0
140
3.0
141
-2.0
142
0.0
143
25.4
144
1.0
145
0.0
146
0.75
147
1.5
 71
     0
 72
     0
 73
     0
 74
     0
 75
     0
 76
     0
 77
     1
 78
     8
170
     0
171
     2
172
     1
173
     0
174
     0
175
     0
176
   256
177
   256
178
   256
270
     2
271
     0
272
     1
273
     2
274
     2
340
1C
275
     0
280
     0
281
     0
282
     0
283
     1
284
     8
285
     8
286
     8
287
     3
288
     0
  0
ENDTAB
  0
TABLE
  2
BLOCK_RECORD
  5
1
100
AcDbSymbolTable
 70
     0
  0
BLOCK_RECORD
  5
2
100
AcDbSymbolTableRecord
100
AcDbBlockTableRecord
  2
*MODEL_SPACE
  0
BLOCK_RECORD
  5
7
100
AcDbSymbolTableRecord
100
AcDbBlockTableRecord
  2
*PAPER_SPACE
  0
ENDTAB
  0
ENDSEC
  0
SECTION
  2
BLOCKS
  0
BLOCK
  5
3
100
AcDbEntity
  8
0
100
AcDbBlockBegin
  2
*MODEL_SPACE
 70
     0
 10
0.0
 20
0.0
 30
0.0
  3
*MODEL_SPACE
  1

  0
ENDBLK
  5
6
100
AcDbEntity
  8
0
100
AcDbBlockEnd
  0
BLOCK
  5
8
100
AcDbEntity
 67
     1
  8
0
100
AcDbBlockBegin
  2
*PAPER_SPACE
 70
     0
 10
0.0
 20
0.0
 30
0.0
  3
*PAPER_SPACE
  1

  0
ENDBLK
  5
9
100
AcDbEntity
 67
     1
  8
0
100
AcDbBlockEnd
  0
ENDSEC
  0
SECTION
  2
ENTITIES
  0
LINE
  5
1F
100
AcDbEntity
  8
025-DWG
100
AcDbLine
 10
373.722071
 20
384.4
 30
-0.421745
 11
373.722071
 21
532.157484
 31
-0.421745
  0
LINE
  5
21
100
AcDbEntity
  8
035-DWG
100
AcDbLine
 10
373.0
 20
532.417541
 30
-0.421745
 11
373.0
 21
384.4
 31
-0.421745
  0
LINE
  5
22
100
AcDbEntity
  8
025-DWG
100
AcDbLine
 10
412.077929
 20
532.157484
 30
-0.421745
 11
412.077929
 21
384.4
 31
-0.421745
  0
LINE
  5
23
100
AcDbEntity
  8
035-DWG
100
AcDbLine
 10
412.8
 20
384.4
 30
-0.421745
 11
412.8
 21
532.417541
 31
-0.421745
  0
LINE
  5
24
100
AcDbEntity
  8
035-DWG
100
AcDbLine
 10
207.15
 20
383.3
 30
-0.421745
 11
207.15
 21
690.352239
 31
-0.421745
  0
LINE
  5
25
100
AcDbEntity
  8
035-DWG
100
AcDbLine
 10
578.65
 20
383.3
 30
-0.421745
 11
578.65
 21
690.352239
 31
-0.421745
  0
LINE
  5
26
100
AcDbEntity
  8
025-DWG
100
AcDbLine
 10
208.4
 20
375.3
 30
-0.421745
 11
577.4
 21
375.3
 31
-0.421745
  0
LINE
  5
27
100
AcDbEntity
  8
035-DWG
100
AcDbLine
 10
207.15
 20
383.3
 30
-0.421745
 11
578.65
 21
383.3
 31
-0.421745
  0
LINE
  5
28
100
AcDbEntity
  8
035-DWG
100
AcDbLine
 10
212.2
 20
345.3
 30
-0.421745
 11
573.6
 21
345.3
 31
-0.421745
  0
LINE
  5
29
100
AcDbEntity
  8
035-DWG
100
AcDbLine
 10
208.4
 20
375.3
 30
-0.421745
 11
208.4
 21
349.1
 31
-0.421745
  0
ARC
  5
2A
100
AcDbEntity
  8
035-DWG
100
AcDbCircle
 10
212.2
 20
349.1
 30
-0.421745
 40
3.8
100
AcDbArc
 50
180.0
 51
270.0
  0
ARC
  5
2B
100
AcDbEntity
  8
035-DWG
100
AcDbCircle
 10
208.4
 20
379.3
 30
-0.421745
 40
4.0
100
AcDbArc
 50
90.0
 51
270.0
  0
LINE
  5
2C
100
AcDbEntity
  8
035-DWG
100
AcDbLine
 10
412.027005
 20
383.9
 30
-0.421745
 11
373.772995
 21
383.9
 31
-0.421745
  0
LINE
  5
2D
100
AcDbEntity
  8
025-DWG
100
AcDbLine
 10
373.722071
 20
384.4
 30
-0.421745
 11
412.077929
 21
384.4
 31
-0.421745
  0
ARC
  5
2E
100
AcDbEntity
  8
035-DWG
100
AcDbCircle
 10
392.9
 20
353.1
 30
-0.421745
 40
9.5
100
AcDbArc
 50
235.190305
 51
304.809695
  0
ARC
  5
2F
100
AcDbEntity
  8
035-DWG
100
AcDbCircle
 10
246.801514
 20
353.1
 30
-0.421745
 40
9.5
100
AcDbArc
 50
235.190305
 51
304.809695
  0
LINE
  5
30
100
AcDbEntity
  8
025-DWG
100
AcDbLine
 10
373.276722
 20
384.4
 30
-0.421745
 11
373.0
 21
384.4
 31
-0.421745
  0
LWPOLYLINE
  5
31
100
AcDbEntity
  8
035-DWG
100
AcDbPolyline
 90
       17
 70
     0
 43
0.0
 38
-0.421745
 10
373.0
 20
384.4
 10
373.002401
 20
384.352364
 10
373.00962
 20
384.304102
 10
373.021677
 20
384.25611
 10
373.038596
 20
384.209283
 10
373.060277
 20
384.164465
 10
373.086144
 20
384.122297
 10
373.115503
 20
384.08337
 10
373.147662
 20
384.048274
 10
373.18413
 20
384.015619
 10
373.224508
 20
383.985982
 10
373.268161
 20
383.960004
 10
373.314458
 20
383.938327
 10
373.362718
 20
383.921475
 10
373.412075
 20
383.909507
 10
373.461614
 20
383.902367
 10
373.510422
 20
383.9
  0
ELLIPSE
  5
32
100
AcDbEntity
  8
025-DWG
100
AcDbEllipse
 10
373.772995
 20
384.4
 30
-0.421745
 11
0.0
 21
0.5
 31
0.0
210
0.0
220
0.0
230
1.0
 40
0.101848
 41
1.570796326794899
 42
3.141592653589798
  0
LINE
  5
33
100
AcDbEntity
  8
025-DWG
100
AcDbLine
 10
373.510422
 20
383.9
 30
-0.421745
 11
373.772995
 21
383.9
 31
-0.421745
  0
LINE
  5
34
100
AcDbEntity
  8
025-DWG
100
AcDbLine
 10
373.276722
 20
384.4
 30
-0.421745
 11
373.722071
 21
384.4
 31
-0.421745
  0
ARC
  5
35
100
AcDbEntity
  8
035-DWG
100
AcDbCircle
 10
538.998486
 20
353.1
 30
-0.421745
 40
9.5
100
AcDbArc
 50
235.190305
 51
304.809695
  0
LINE
  5
36
100
AcDbEntity
  8
025-DWG
100
AcDbLine
 10
412.027005
 20
383.9
 30
-0.421745
 11
412.289578
 21
383.9
 31
-0.421745
  0
LINE
  5
37
100
AcDbEntity
  8
025-DWG
100
AcDbLine
 10
412.8
 20
384.4
 30
-0.421745
 11
412.523278
 21
384.4
 31
-0.421745
  0
LWPOLYLINE
  5
38
100
AcDbEntity
  8
035-DWG
100
AcDbPolyline
 90
       17
 70
     0
 43
0.0
 38
-0.421745
 10
412.289578
 20
383.9
 10
412.338386
 20
383.902367
 10
412.387925
 20
383.909507
 10
412.437282
 20
383.921475
 10
412.485542
 20
383.938327
 10
412.531839
 20
383.960004
 10
412.575492
 20
383.985982
 10
412.61587
 20
384.015619
 10
412.652338
 20
384.048274
 10
412.684497
 20
384.08337
 10
412.713856
 20
384.122297
 10
412.739723
 20
384.164465
 10
412.761404
 20
384.209283
 10
412.778323
 20
384.25611
 10
412.79038
 20
384.304102
 10
412.797599
 20
384.352364
 10
412.8
 20
384.4
  0
ELLIPSE
  5
39
100
AcDbEntity
  8
025-DWG
100
AcDbEllipse
 10
412.027005
 20
384.4
 30
-0.421745
 11
0.0
 21
-0.5
 31
0.0
210
0.0
220
0.0
230
1.0
 40
0.101848
 41
0.0000000000000045
 42
1.570796326794898
  0
LINE
  5
3A
100
AcDbEntity
  8
025-DWG
100
AcDbLine
 10
412.077929
 20
384.4
 30
-0.421745
 11
412.523278
 21
384.4
 31
-0.421745
  0
LINE
  5
3B
100
AcDbEntity
  8
035-DWG
100
AcDbLine
 10
577.4
 20
375.3
 30
-0.421745
 11
577.4
 21
349.1
 31
-0.421745
  0
ARC
  5
3C
100
AcDbEntity
  8
035-DWG
100
AcDbCircle
 10
573.6
 20
349.1
 30
-0.421745
 40
3.8
100
AcDbArc
 50
270.0
 51
360.0
  0
ARC
  5
3D
100
AcDbEntity
  8
035-DWG
100
AcDbCircle
 10
577.4
 20
379.3
 30
-0.421745
 40
4.0
100
AcDbArc
 50
270.0
 51
90.0
  0
LINE
  5
3E
100
AcDbEntity
  8
035-DWG
100
AcDbLine
 10
558.831835
 20
1034.007245
 30
-0.421745
 11
534.352227
 21
1020.399966
 31
-0.421745
  0
LINE
  5
3F
100
AcDbEntity
  8
035-DWG
100
AcDbLine
 10
558.831835
 20
1034.007245
 30
-0.421745
 11
550.086581
 21
1049.74003
 31
-0.421745
  0
LINE
  5
40
100
AcDbEntity
  8
035-DWG
100
AcDbLine
 10
199.95
 20
994.669091
 30
-0.421745
 11
585.85
 21
994.669091
 31
-0.421745
  0
LINE
  5
41
100
AcDbEntity
  8
025-DWG
100
AcDbLine
 10
210.6
 20
975.355427
 30
-0.421745
 11
575.2
 21
975.355427
 31
-0.421745
  0
LINE
  5
42
100
AcDbEntity
  8
025-DWG
100
AcDbLine
 10
210.6
 20
970.355427
 30
-0.421745
 11
575.2
 21
970.355427
 31
-0.421745
  0
LINE
  5
43
100
AcDbEntity
  8
035-DWG
100
AcDbLine
 10
205.9
 20
838.169091
 30
-0.421745
 11
579.9
 21
838.169091
 31
-0.421745
  0
LINE
  5
44
100
AcDbEntity
  8
035-DWG
100
AcDbLine
 10
209.2
 20
853.169091
 30
-0.421745
 11
576.6
 21
853.169091
 31
-0.421745
  0
LINE
  5
45
100
AcDbEntity
  8
035-DWG
100
AcDbLine
 10
212.9
 20
854.369091
 30
-0.421745
 11
572.9
 21
854.369091
 31
-0.421745
  0
LINE
  5
46
100
AcDbEntity
  8
035-DWG
100
AcDbLine
 10
201.95
 20
1002.669091
 30
-0.421745
 11
583.85
 21
1002.669091
 31
-0.421745
  0
LINE
  5
47
100
AcDbEntity
  8
035-DWG
100
AcDbLine
 10
412.722299
 20
825.477
 30
-0.421745
 11
412.722299
 21
570.862389
 31
-0.421745
  0
LINE
  5
48
100
AcDbEntity
  8
035-DWG
100
AcDbLine
 10
373.077701
 20
825.477
 30
-0.421745
 11
373.077701
 21
570.862389
 31
-0.421745
  0
LINE
  5
49
100
AcDbEntity
  8
025-DWG
100
AcDbLine
 10
374.596361
 20
826.315704
 30
-0.421745
 11
374.596361
 21
571.903052
 31
-0.421745
  0
LINE
  5
4A
100
AcDbEntity
  8
025-DWG
100
AcDbLine
 10
411.203639
 20
826.315704
 30
-0.421745
 11
411.203639
 21
571.903052
 31
-0.421745
  0
LINE
  5
4B
100
AcDbEntity
  8
025-DWG
100
AcDbLine
 10
386.006383
 20
826.940589
 30
-0.421745
 11
386.006383
 21
619.442148
 31
-0.421745
  0
LINE
  5
4C
100
AcDbEntity
  8
035-DWG
100
AcDbLine
 10
386.65
 20
826.959311
 30
-0.421745
 11
386.65
 21
619.365571
 31
-0.421745
  0
LINE
  5
4D
100
AcDbEntity
  8
035-DWG
100
AcDbLine
 10
399.15
 20
826.959311
 30
-0.421745
 11
399.15
 21
619.365571
 31
-0.421745
  0
LINE
  5
4E
100
AcDbEntity
  8
025-DWG
100
AcDbLine
 10
399.793617
 20
826.940589
 30
-0.421745
 11
399.793617
 21
619.442148
 31
-0.421745
  0
LINE
  5
4F
100
AcDbEntity
  8
035-DWG
100
AcDbLine
 10
207.15
 20
742.021072
 30
-0.421745
 11
207.15
 21
838.169091
 31
-0.421745
  0
LINE
  5
50
100
AcDbEntity
  8
035-DWG
  6
CONTINUOUS
100
AcDbLine
 10
217.777764
 20
698.148987
 30
-0.421745
 11
217.777764
 21
735.708899
 31
-0.421745
  0
LINE
  5
51
100
AcDbEntity
  8
025-DWG
  6
CONTINUOUS
100
AcDbLine
 10
166.048453
 20
736.57672
 30
-0.421745
 11
199.065136
 21
714.994784
 31
-0.421745
  0
LINE
  5
52
100
AcDbEntity
  8
035-DWG
  6
CONTINUOUS
100
AcDbLine
 10
190.498262
 20
719.542016
 30
-0.421745
 11
165.721264
 21
735.73479
 31
-0.421745
  0
LWPOLYLINE
  5
53
100
AcDbEntity
  8
035-DWG
  6
CONTINUOUS
100
AcDbPolyline
 90
       10
 70
   128
 43
0.0
 38
-0.421745
 10
207.070304
 20
690.303969
 10
207.15
 20
690.352239
 10
207.486518
 20
690.555349
 10
208.067075
 20
690.905205
 10
208.91966
 20
691.417995
 10
210.027611
 20
692.081823
 10
211.385946
 20
692.891551
 10
212.989683
 20
693.84204
 10
214.970458
 20
695.007845
 10
217.220735
 20
696.320822
  0
LWPOLYLINE
  5
54
100
AcDbEntity
  8
035-DWG
  6
CONTINUOUS
100
AcDbPolyline
 90
        5
 70
   128
 43
0.0
 38
-0.421745
 10
217.220735
 20
696.320822
 10
217.458272
 20
696.582725
 10
217.653656
 20
697.084213
 10
217.756072
 20
697.682909
 10
217.777764
 20
698.148987
  0
LWPOLYLINE
  5
55
100
AcDbEntity
  8
025-DWG
  6
CONTINUOUS
100
AcDbPolyline
 90
        9
 70
   128
 43
0.0
 38
-0.421745
 10
198.738097
 20
714.153092
 10
198.712291
 20
714.174772
 10
198.70697
 20
714.226411
 10
198.72233
 20
714.306122
 10
198.757809
 20
714.410991
 10
198.812111
 20
714.537189
 10
198.883252
 20
714.680105
 10
198.968633
 20
714.834517
 10
199.065136
 20
714.994784
  0
LINE
  5
56
100
AcDbEntity
  8
025-DWG
  6
CONTINUOUS
100
AcDbLine
 10
200.290271
 20
711.587629
 30
-0.421745
 11
201.040479
 21
711.587629
 31
-0.421745
  0
LWPOLYLINE
  5
57
100
AcDbEntity
  8
025-DWG
  6
CONTINUOUS
100
AcDbPolyline
 90
        7
 70
   128
 43
0.0
 38
-0.421745
 10
199.065136
 20
714.994784
 10
199.743382
 20
714.454981
 10
200.329065
 20
713.767272
 10
200.705723
 20
713.100422
 10
200.957227
 20
712.343316
 10
201.019016
 20
711.970098
 10
201.040479
 20
711.587629
  0
LWPOLYLINE
  5
58
100
AcDbEntity
  8
025-DWG
  6
CONTINUOUS
100
AcDbPolyline
 90
        6
 70
   128
 43
0.0
 38
-0.421745
 10
200.290271
 20
711.587629
 10
200.245634
 20
711.992744
 10
200.137499
 20
712.393917
 10
199.918006
 20
712.882519
 10
199.616935
 20
713.337034
 10
199.246767
 20
713.740094
  0
LWPOLYLINE
  5
59
100
AcDbEntity
  8
035-DWG
  6
CONTINUOUS
100
AcDbPolyline
 90
        3
 70
   128
 43
0.0
 38
-0.421745
 10
195.977139
 20
715.779089
 10
195.978094
 20
715.790133
 10
195.979054
 20
715.949004
  0
LINE
  5
5A
100
AcDbEntity
  8
035-DWG
  6
CONTINUOUS
100
AcDbLine
 10
195.977139
 20
715.779089
 30
-0.421745
 11
195.977139
 21
715.950256
 31
-0.421745
  0
LWPOLYLINE
  5
5B
100
AcDbEntity
  8
035-DWG
  6
CONTINUOUS
100
AcDbPolyline
 90
        3
 70
   128
 43
0.0
 38
-0.421745
 10
195.999497
 20
715.935644
 10
195.978714
 20
715.785702
 10
195.977139
 20
715.779089
  0
LWPOLYLINE
  5
5C
100
AcDbEntity
  8
025-DWG
  6
CONTINUOUS
100
AcDbPolyline
 90
        6
 70
   128
 43
0.0
 38
-0.421745
 10
200.290271
 20
711.587629
 10
199.159136
 20
712.661808
 10
198.103537
 20
713.681453
 10
197.12357
 20
714.641735
 10
196.221848
 20
715.535282
 10
195.977139
 20
715.779089
  0
LINE
  5
5D
100
AcDbEntity
  8
035-DWG
  6
CONTINUOUS
100
AcDbLine
 10
190.491903
 20
719.535017
 30
-0.421745
 11
198.723919
 21
714.155156
 31
-0.421745
  0
LWPOLYLINE
  5
5E
100
AcDbEntity
  8
025-DWG
  6
CONTINUOUS
100
AcDbPolyline
 90
        5
 70
   128
 43
0.0
 38
-0.421745
 10
201.040479
 20
700.238483
 10
200.995929
 20
699.602426
 10
200.943892
 20
699.041627
 10
200.890162
 20
698.614048
 10
200.840048
 20
698.360429
  0
LINE
  5
5F
100
AcDbEntity
  8
025-DWG
  6
CONTINUOUS
100
AcDbLine
 10
200.290271
 20
700.238483
 30
-0.421745
 11
201.040479
 21
700.238483
 31
-0.421745
  0
LWPOLYLINE
  5
60
100
AcDbEntity
  8
025-DWG
  6
CONTINUOUS
100
AcDbPolyline
 90
        9
 70
   128
 43
0.0
 38
-0.421745
 10
200.051921
 20
699.316751
 10
200.073945
 20
699.153173
 10
200.122108
 20
698.994156
 10
200.195068
 20
698.844137
 10
200.29079
 20
698.707299
 10
200.406603
 20
698.587458
 10
200.539279
 20
698.487957
 10
200.685116
 20
698.41157
 10
200.840048
 20
698.360429
  0
LWPOLYLINE
  5
61
100
AcDbEntity
  8
025-DWG
  6
CONTINUOUS
100
AcDbPolyline
 90
        5
 70
   128
 43
0.0
 38
-0.421745
 10
200.051921
 20
699.316751
 10
200.151879
 20
699.443384
 10
200.234039
 20
699.685402
 10
200.279212
 20
699.981262
 10
200.290271
 20
700.238483
  0
LINE
  5
62
100
AcDbEntity
  8
025-DWG
  6
CONTINUOUS
100
AcDbLine
 10
192.907732
 20
703.850597
 30
-0.421745
 11
194.578288
 21
703.850597
 31
-0.421745
  0
LINE
  5
63
100
AcDbEntity
  8
025-DWG
  6
CONTINUOUS
100
AcDbLine
 10
192.907704
 20
703.850597
 30
-0.421745
 11
192.907732
 21
703.850597
 31
-0.421745
  0
LWPOLYLINE
  5
64
100
AcDbEntity
  8
025-DWG
  6
CONTINUOUS
100
AcDbPolyline
 90
        5
 70
   128
 43
0.0
 38
-0.421745
 10
192.907704
 20
703.850597
 10
192.680897
 20
703.852186
 10
192.548831
 20
703.854126
 10
192.531457
 20
703.854691
 10
192.524727
 20
703.855058
  0
LWPOLYLINE
  5
65
100
AcDbEntity
  8
025-DWG
  6
CONTINUOUS
100
AcDbPolyline
 90
        4
 70
   128
 43
0.0
 38
-0.421745
 10
194.594419
 20
703.855058
 10
194.586349
 20
703.854691
 10
194.580779
 20
703.854126
 10
194.585004
 20
703.853967
  0
LWPOLYLINE
  5
66
100
AcDbEntity
  8
025-DWG
  6
CONTINUOUS
100
AcDbPolyline
 90
        3
 70
   128
 43
0.0
 38
-0.421745
 10
195.203315
 20
694.038103
 10
195.856453
 20
694.413581
 10
195.931774
 20
694.464349
  0
ARC
  5
67
100
AcDbEntity
  8
025-DWG
  6
CONTINUOUS
100
AcDbCircle
 10
195.59668
 20
695.700931
 30
-0.421745
 40
1.0
100
AcDbArc
 50
180.112579
 51
250.184832
  0
LWPOLYLINE
  5
68
100
AcDbEntity
  8
025-DWG
  6
CONTINUOUS
100
AcDbPolyline
 90
        9
 70
   128
 43
0.0
 38
-0.421745
 10
194.610501
 20
695.700931
 10
194.628197
 20
695.530821
 10
194.674477
 20
695.365732
 10
194.747976
 20
695.210536
 10
194.846525
 20
695.069814
 10
194.967214
 20
694.94772
 10
195.106482
 20
694.847856
 10
195.260218
 20
694.773171
 10
195.423884
 20
694.725868
  0
LWPOLYLINE
  5
69
100
AcDbEntity
  8
025-DWG
  6
CONTINUOUS
100
AcDbPolyline
 90
        3
 70
   128
 43
0.0
 38
-0.421745
 10
195.264701
 20
693.083056
 10
193.693586
 20
693.268747
 10
193.338318
 20
693.311607
  0
LWPOLYLINE
  5
6A
100
AcDbEntity
  8
025-DWG
  6
CONTINUOUS
100
AcDbPolyline
 90
        9
 70
   128
 43
0.0
 38
-0.421745
 10
194.824607
 20
694.056234
 10
194.822281
 20
693.883632
 10
194.838628
 20
693.716529
 10
194.873152
 20
693.55999
 10
194.924805
 20
693.418764
 10
194.992023
 20
693.297131
 10
195.072766
 20
693.19878
 10
195.164587
 20
693.126693
 10
195.264701
 20
693.083056
  0
LWPOLYLINE
  5
6B
100
AcDbEntity
  8
025-DWG
  6
CONTINUOUS
100
AcDbPolyline
 90
        9
 70
   128
 43
0.0
 38
-0.421745
 10
195.203315
 20
694.038103
 10
195.219502
 20
693.865838
 10
195.26498
 20
693.698742
 10
195.338382
 20
693.541831
 10
195.437506
 20
693.399812
 10
195.559378
 20
693.276948
 10
195.70034
 20
693.176925
 10
195.856163
 20
693.102746
 10
196.022169
 20
693.056636
  0
LINE
  5
6C
100
AcDbEntity
  8
025-DWG
  6
CONTINUOUS
100
AcDbLine
 10
195.204457
 20
694.781061
 30
-0.421745
 11
195.203315
 21
694.038103
 31
-0.421745
  0
LINE
  5
6D
100
AcDbEntity
  8
025-DWG
  6
CONTINUOUS
100
AcDbLine
 10
192.898264
 20
694.285238
 30
-0.421745
 11
194.824607
 21
694.056234
 31
-0.421745
  0
LWPOLYLINE
  5
6E
100
AcDbEntity
  8
025-DWG
  6
CONTINUOUS
100
AcDbPolyline
 90
        9
 70
   128
 43
0.0
 38
-0.421745
 10
192.898264
 20
694.285238
 10
192.820042
 20
694.286113
 10
192.749208
 20
694.287072
 10
192.686516
 20
694.288105
 10
192.632636
 20
694.2892
 10
192.588144
 20
694.290346
 10
192.553515
 20
694.29153
 10
192.529119
 20
694.292741
 10
192.515216
 20
694.293965
  0
LINE
  5
6F
100
AcDbEntity
  8
025-DWG
  6
CONTINUOUS
100
AcDbLine
 10
194.824607
 20
694.056234
 30
-0.421745
 11
194.826156
 21
695.063521
 31
-0.421745
  0
LWPOLYLINE
  5
70
100
AcDbEntity
  8
025-DWG
  6
CONTINUOUS
100
AcDbPolyline
 90
        3
 70
   128
 43
0.0
 38
-0.421745
 10
194.610501
 20
695.700931
 10
194.59867
 20
695.699708
 10
194.596682
 20
695.698966
  0
LWPOLYLINE
  5
71
100
AcDbEntity
  8
025-DWG
  6
CONTINUOUS
100
AcDbPolyline
 90
        6
 70
   128
 43
0.0
 38
-0.421745
 10
195.203315
 20
694.038103
 10
195.17244
 20
694.022206
 10
195.116608
 20
694.015789
 10
195.040241
 20
694.01942
 10
194.941204
 20
694.033103
 10
194.824607
 20
694.056234
  0
LWPOLYLINE
  5
72
100
AcDbEntity
  8
025-DWG
  6
CONTINUOUS
100
AcDbPolyline
 90
        4
 70
   128
 43
0.0
 38
-0.421745
 10
193.338318
 20
693.311607
 10
192.846498
 20
692.976932
 10
192.64086
 20
692.836869
 10
192.643675
 20
692.838786
  0
LWPOLYLINE
  5
73
100
AcDbEntity
  8
025-DWG
  6
CONTINUOUS
100
AcDbPolyline
 90
        9
 70
   128
 43
0.0
 38
-0.421745
 10
193.338318
 20
693.311607
 10
193.17114
 20
693.357285
 10
193.014236
 20
693.431217
 10
192.87234
 20
693.531173
 10
192.749731
 20
693.654138
 10
192.650107
 20
693.796403
 10
192.576475
 20
693.953677
 10
192.531055
 20
694.121215
 10
192.515216
 20
694.293965
  0
LWPOLYLINE
  5
74
100
AcDbEntity
  8
025-DWG
  6
CONTINUOUS
100
AcDbPolyline
 90
        9
 70
   128
 43
0.0
 38
-0.421745
 10
192.898264
 20
694.285238
 10
192.895439
 20
694.112095
 10
192.911435
 20
693.944505
 10
192.945762
 20
693.787587
 10
192.997372
 20
693.646132
 10
193.064689
 20
693.524458
 10
193.145657
 20
693.426282
 10
193.237805
 20
693.354602
 10
193.338318
 20
693.311607
  0
LWPOLYLINE
  5
75
100
AcDbEntity
  8
025-DWG
  6
CONTINUOUS
100
AcDbPolyline
 90
        3
 70
   128
 43
0.0
 38
-0.421745
 10
196.922067
 20
694.193088
 10
196.779113
 20
694.220523
 10
196.761839
 20
694.226376
  0
LWPOLYLINE
  5
76
100
AcDbEntity
  8
025-DWG
  6
CONTINUOUS
100
AcDbPolyline
 90
        3
 70
   128
 43
0.0
 38
-0.421745
 10
195.423884
 20
694.725868
 10
195.280345
 20
694.752491
 10
195.257693
 20
694.76014
  0
LWPOLYLINE
  5
77
100
AcDbEntity
  8
025-DWG
  6
CONTINUOUS
100
AcDbPolyline
 90
        3
 70
   128
 43
0.0
 38
-0.421745
 10
195.423884
 20
694.725868
 10
196.622307
 20
694.298374
 10
196.922067
 20
694.193088
  0
LWPOLYLINE
  5
78
100
AcDbEntity
  8
025-DWG
  6
CONTINUOUS
100
AcDbPolyline
 90
        4
 70
   128
 43
0.0
 38
-0.421745
 10
196.763117
 20
694.225551
 10
196.78518
 20
694.218136
 10
196.897863
 20
694.174265
 10
196.91568
 20
694.166081
  0
LINE
  5
79
100
AcDbEntity
  8
025-DWG
  6
CONTINUOUS
100
AcDbLine
 10
195.261137
 20
694.758911
 30
-0.421745
 11
196.761895
 21
694.226356
 31
-0.421745
  0
LWPOLYLINE
  5
7A
100
AcDbEntity
  8
025-DWG
  6
CONTINUOUS
100
AcDbPolyline
 90
        3
 70
   128
 43
0.0
 38
-0.421745
 10
197.327487
 20
693.927279
 10
197.080518
 20
693.726753
 10
196.022169
 20
693.056636
  0
LWPOLYLINE
  5
7B
100
AcDbEntity
  8
025-DWG
  6
CONTINUOUS
100
AcDbPolyline
 90
        7
 70
   128
 43
0.0
 38
-0.421745
 10
195.264701
 20
693.083056
 10
195.505171
 20
693.057844
 10
195.711977
 20
693.042336
 10
195.867721
 20
693.037956
 10
195.976937
 20
693.044666
 10
196.00319
 20
693.049904
 10
196.022169
 20
693.056636
  0
LWPOLYLINE
  5
7C
100
AcDbEntity
  8
025-DWG
  6
CONTINUOUS
100
AcDbPolyline
 90
        5
 70
   128
 43
0.0
 38
-0.421745
 10
197.327487
 20
693.927279
 10
197.162046
 20
693.973843
 10
197.006687
 20
694.048123
 10
196.866037
 20
694.147907
 10
196.826876
 20
694.182834
  0
LWPOLYLINE
  5
7D
100
AcDbEntity
  8
025-DWG
  6
CONTINUOUS
100
AcDbPolyline
 90
        7
 70
   128
 43
0.0
 38
-0.421745
 10
197.327487
 20
693.927279
 10
197.341263
 20
693.967808
 10
197.297726
 20
694.019748
 10
197.201188
 20
694.078555
 10
197.049508
 20
694.145784
 10
196.988448
 20
694.169172
 10
196.922067
 20
694.193088
  0
ARC
  5
7E
100
AcDbEntity
  8
035-DWG
  6
CONTINUOUS
100
AcDbCircle
 10
192.814306
 20
693.821539
 30
-0.421745
 40
1.0
100
AcDbArc
 50
179.802337
 51
260.155733
  0
LWPOLYLINE
  5
7F
100
AcDbEntity
  8
025-DWG
  6
CONTINUOUS
100
AcDbPolyline
 90
        4
 70
   128
 43
0.0
 38
-0.421745
 10
191.819455
 20
693.825012
 10
191.911628
 20
693.887198
 10
192.223936
 20
694.097743
 10
192.515216
 20
694.293965
  0
LINE
  5
80
100
AcDbEntity
  8
025-DWG
  6
CONTINUOUS
100
AcDbLine
 10
192.907732
 20
703.850597
 30
-0.421745
 11
192.898264
 21
694.285238
 31
-0.421745
  0
LINE
  5
81
100
AcDbEntity
  8
025-DWG
  6
CONTINUOUS
100
AcDbLine
 10
192.515216
 20
694.293965
 30
-0.421745
 11
192.524727
 21
703.855058
 31
-0.421745
  0
LINE
  5
82
100
AcDbEntity
  8
025-DWG
  6
CONTINUOUS
100
AcDbLine
 10
194.594419
 20
703.855058
 30
-0.421745
 11
194.610501
 21
695.700931
 31
-0.421745
  0
LWPOLYLINE
  5
83
100
AcDbEntity
  8
025-DWG
  6
CONTINUOUS
100
AcDbPolyline
 90
        5
 70
   128
 43
0.0
 38
-0.421745
 10
194.610501
 20
695.700931
 10
195.516306
 20
696.306687
 10
196.81595
 20
697.173164
 10
198.305593
 20
698.162416
 10
200.051921
 20
699.316751
  0
LWPOLYLINE
  5
84
100
AcDbEntity
  8
025-DWG
  6
CONTINUOUS
100
AcDbPolyline
 90
        5
 70
   128
 43
0.0
 38
-0.421745
 10
200.840048
 20
698.360429
 10
199.239402
 20
697.292161
 10
197.804269
 20
696.330145
 10
196.653994
 20
695.556242
 10
195.423884
 20
694.725868
  0
LINE
  5
85
100
AcDbEntity
  8
025-DWG
  6
CONTINUOUS
100
AcDbLine
 10
201.040479
 20
711.587629
 30
-0.421745
 11
201.040479
 21
700.238483
 31
-0.421745
  0
LWPOLYLINE
  5
86
100
AcDbEntity
  8
025-DWG
  6
CONTINUOUS
100
AcDbPolyline
 90
        6
 70
   128
 43
0.0
 38
-0.421745
 10
192.524727
 20
703.855058
 10
192.534898
 20
705.281891
 10
192.565297
 20
706.668791
 10
192.616525
 20
707.976091
 10
192.688894
 20
709.16699
 10
192.693767
 20
709.220733
  0
LWPOLYLINE
  5
87
100
AcDbEntity
  8
025-DWG
  6
CONTINUOUS
100
AcDbPolyline
 90
       16
 70
   128
 43
0.0
 38
-0.421745
 10
192.693767
 20
709.220733
 10
192.782737
 20
710.201863
 10
192.897849
 20
711.055299
 10
193.031673
 20
711.690416
 10
193.183487
 20
712.103889
 10
193.348072
 20
712.278348
 10
193.523082
 20
712.21939
 10
193.702161
 20
711.928513
 10
193.88046
 20
711.418338
 10
194.052133
 20
710.698171
 10
194.209879
 20
709.793618
 10
194.348634
 20
708.713895
 10
194.460656
 20
707.502325
 10
194.541503
 20
706.17103
 10
194.586136
 20
704.775796
 10
194.594419
 20
703.855058
  0
LWPOLYLINE
  5
88
100
AcDbEntity
  8
025-DWG
  6
CONTINUOUS
100
AcDbPolyline
 90
       15
 70
   128
 43
0.0
 38
-0.421745
 10
193.753367
 20
711.57448
 10
193.758346
 20
711.564944
 10
193.798048
 20
711.475871
 10
193.864004
 20
711.290396
 10
193.948701
 20
710.994152
 10
194.043668
 20
710.584542
 10
194.141101
 20
710.069587
 10
194.235251
 20
709.463577
 10
194.324012
 20
708.765544
 10
194.403433
 20
707.98999
 10
194.470382
 20
707.151745
 10
194.522172
 20
706.269716
 10
194.557805
 20
705.358602
 10
194.577111
 20
704.417592
 10
194.578281
 20
703.853941
  0
LWPOLYLINE
  5
89
100
AcDbEntity
  8
025-DWG
  6
CONTINUOUS
100
AcDbPolyline
 90
       12
 70
   128
 43
0.0
 38
-0.421745
 10
193.802555
 20
711.496951
 10
193.760604
 20
711.551547
 10
193.603495
 20
711.5523
 10
193.45963
 20
711.341278
 10
193.330059
 20
710.929512
 10
193.216922
 20
710.324797
 10
193.121509
 20
709.549052
 10
193.043236
 20
708.60619
 10
192.983289
 20
707.536925
 10
192.940487
 20
706.343478
 10
192.915446
 20
705.082344
 10
192.907704
 20
703.850597
  0
LINE
  5
8A
100
AcDbEntity
  8
025-DWG
  6
CONTINUOUS
100
AcDbLine
 10
200.290271
 20
700.238483
 30
-0.421745
 11
200.290271
 21
711.587629
 31
-0.421745
  0
LINE
  5
8B
100
AcDbEntity
  8
035-DWG
  6
CONTINUOUS
100
AcDbLine
 10
191.814306
 20
718.670788
 30
-0.421745
 11
191.814306
 21
693.825012
 31
-0.421745
  0
LINE
  5
8C
100
AcDbEntity
  8
025-DWG
  6
CONTINUOUS
100
AcDbLine
 10
201.040479
 20
700.238483
 30
-0.421745
 11
217.777764
 21
698.148987
 31
-0.421745
  0
LWPOLYLINE
  5
8D
100
AcDbEntity
  8
025-DWG
  6
CONTINUOUS
100
AcDbPolyline
 90
        4
 70
   128
 43
0.0
 38
-0.421745
 10
217.220735
 20
696.320822
 10
214.76739
 20
696.623382
 10
207.375521
 20
697.541186
 10
200.840048
 20
698.360429
  0
LINE
  5
8E
100
AcDbEntity
  8
035-DWG
  6
CONTINUOUS
100
AcDbLine
 10
192.643233
 20
692.836277
 30
-0.421745
 11
207.068325
 21
690.292744
 31
-0.421745
  0
LINE
  5
8F
100
AcDbEntity
  8
035-DWG
  6
CONTINUOUS
100
AcDbLine
 10
211.879797
 20
741.522371
 30
-0.421745
 11
174.546563
 21
745.458722
 31
-0.421745
  0
LWPOLYLINE
  5
90
100
AcDbEntity
  8
025-DWG
  6
CONTINUOUS
100
AcDbPolyline
 90
        3
 70
   128
 43
0.0
 38
-0.421745
 10
217.777764
 20
735.708899
 10
189.381073
 20
739.714538
 10
160.808375
 20
743.57733
  0
LWPOLYLINE
  5
91
100
AcDbEntity
  8
025-DWG
  6
CONTINUOUS
100
AcDbPolyline
 90
        3
 70
   128
 43
0.0
 38
-0.421745
 10
161.101567
 20
744.552268
 10
189.376223
 20
740.724967
 10
217.478669
 20
736.757116
  0
LWPOLYLINE
  5
92
100
AcDbEntity
  8
035-DWG
  6
CONTINUOUS
100
AcDbPolyline
 90
        7
 70
   128
 43
0.0
 38
-0.421745
 10
171.897713
 20
746.083876
 10
170.96486
 20
747.050488
 10
170.216567
 20
747.826171
 10
169.653044
 20
748.410495
 10
169.282299
 20
748.795013
 10
169.104576
 20
748.979357
 10
169.114291
 20
748.969281
  0
LWPOLYLINE
  5
93
100
AcDbEntity
  8
035-DWG
  6
CONTINUOUS
100
AcDbPolyline
 90
       11
 70
   128
 43
0.0
 38
-0.421745
 10
172.494816
 20
745.830549
 10
172.357319
 20
745.972392
 10
171.755017
 20
746.593928
 10
171.234227
 20
747.131489
 10
170.79469
 20
747.585268
 10
170.427896
 20
747.964009
 10
170.137856
 20
748.263546
 10
169.924244
 20
748.484188
 10
169.786822
 20
748.626156
 10
169.725453
 20
748.689564
 10
169.722173
 20
748.692953
  0
LWPOLYLINE
  5
94
100
AcDbEntity
  8
035-DWG
  6
CONTINUOUS
100
AcDbPolyline
 90
        9
 70
   128
 43
0.0
 38
-0.421745
 10
169.119766
 20
748.991046
 10
169.204334
 20
748.977432
 10
169.287427
 20
748.95663
 10
169.368435
 20
748.928794
 10
169.446764
 20
748.894127
 10
169.521839
 20
748.852885
 10
169.593108
 20
748.805368
 10
169.66005
 20
748.751927
 10
169.72176
 20
748.693381
  0
LWPOLYLINE
  5
95
100
AcDbEntity
  8
035-DWG
  6
CONTINUOUS
100
AcDbPolyline
 90
        5
 70
   128
 43
0.0
 38
-0.421745
 10
174.546563
 20
745.458722
 10
173.57549
 20
745.587712
 10
172.754447
 20
745.751253
 10
172.163952
 20
745.931601
 10
171.897713
 20
746.083876
  0
LWPOLYLINE
  5
96
100
AcDbEntity
  8
035-DWG
  6
CONTINUOUS
100
AcDbPolyline
 90
        5
 70
   128
 43
0.0
 38
-0.421745
 10
164.322065
 20
736.248687
 10
164.663511
 20
736.196464
 10
165.221747
 20
736.005376
 10
165.754867
 20
735.70993
 10
165.777243
 20
735.693845
  0
LWPOLYLINE
  5
97
100
AcDbEntity
  8
035-DWG
  6
CONTINUOUS
100
AcDbPolyline
 90
        5
 70
   128
 43
0.0
 38
-0.421745
 10
164.320937
 20
736.248837
 10
164.662313
 20
736.196628
 10
165.220566
 20
736.005497
 10
165.753918
 20
735.709959
 10
165.77622
 20
735.693928
  0
LWPOLYLINE
  5
98
100
AcDbEntity
  8
025-DWG
  6
CONTINUOUS
100
AcDbPolyline
 90
        3
 70
   128
 43
0.0
 38
-0.421745
 10
164.370803
 20
736.279246
 10
164.322928
 20
736.261326
 10
164.323062
 20
736.261308
  0
LWPOLYLINE
  5
99
100
AcDbEntity
  8
025-DWG
  6
CONTINUOUS
100
AcDbPolyline
 90
        5
 70
   128
 43
0.0
 38
-0.421745
 10
164.248049
 20
737.25244
 10
164.963805
 20
737.091857
 10
165.662958
 20
736.801915
 10
165.858188
 20
736.694318
 10
166.048453
 20
736.57672
  0
LINE
  5
9A
100
AcDbEntity
  8
035-DWG
  6
CONTINUOUS
100
AcDbLine
 10
164.370803
 20
736.279246
 30
-0.421745
 11
160.931069
 21
736.73876
 31
-0.421745
  0
ARC
  5
9B
100
AcDbEntity
  8
035-DWG
  6
CONTINUOUS
100
AcDbCircle
 10
155.003257
 20
749.222698
 30
-0.421745
 40
1.0
100
AcDbArc
 50
84.850774
 51
180.171784
  0
LINE
  5
9C
100
AcDbEntity
  8
025-DWG
  6
CONTINUOUS
100
AcDbLine
 10
158.878877
 20
738.062934
 30
-0.421745
 11
158.878877
 21
743.921419
 31
-0.421745
  0
LINE
  5
9D
100
AcDbEntity
  8
025-DWG
  6
CONTINUOUS
100
AcDbLine
 10
160.808375
 20
743.57733
 30
-0.421745
 11
160.808375
 21
737.712631
 31
-0.421745
  0
LWPOLYLINE
  5
9E
100
AcDbEntity
  8
025-DWG
  6
CONTINUOUS
100
AcDbPolyline
 90
        8
 70
   128
 43
0.0
 38
-0.421745
 10
154.009913
 20
743.47885
 10
154.093718
 20
743.385666
 10
154.386899
 20
743.059698
 10
154.881376
 20
742.509875
 10
155.574268
 20
741.739334
 10
156.479783
 20
740.732191
 10
157.583364
 20
739.504499
 10
158.878877
 20
738.062934
  0
LWPOLYLINE
  5
9F
100
AcDbEntity
  8
035-DWG
  6
CONTINUOUS
100
AcDbPolyline
 90
       14
 70
   128
 43
0.0
 38
-0.421745
 10
154.258432
 20
742.818981
 10
154.26834
 20
742.807921
 10
154.342573
 20
742.725051
 10
154.489308
 20
742.561236
 10
154.708551
 20
742.316452
 10
155.000331
 20
741.990655
 10
155.364808
 20
741.583656
 10
155.802243
 20
741.095147
 10
156.31311
 20
740.524588
 10
156.897214
 20
739.872171
 10
157.551316
 20
739.141478
 10
158.282128
 20
738.324976
 10
159.088306
 20
737.424121
 10
159.117071
 20
737.391971
  0
LWPOLYLINE
  5
A0
100
AcDbEntity
  8
025-DWG
  6
CONTINUOUS
100
AcDbPolyline
 90
        5
 70
   128
 43
0.0
 38
-0.421745
 10
158.878877
 20
738.062934
 10
159.186694
 20
737.946489
 10
159.740751
 20
737.835117
 10
160.477808
 20
737.742223
 10
160.808375
 20
737.712631
  0
LWPOLYLINE
  5
A1
100
AcDbEntity
  8
025-DWG
  6
CONTINUOUS
100
AcDbPolyline
 90
        8
 70
   128
 43
0.0
 38
-0.421745
 10
164.323062
 20
736.261308
 10
164.281489
 20
736.29136
 10
164.248491
 20
736.367893
 10
164.225531
 20
736.487224
 10
164.213718
 20
736.643577
 10
164.213625
 20
736.82939
 10
164.225257
 20
737.035671
 10
164.248049
 20
737.25244
  0
LWPOLYLINE
  5
A2
100
AcDbEntity
  8
035-DWG
  6
CONTINUOUS
100
AcDbPolyline
 90
        8
 70
   128
 43
0.0
 38
-0.421745
 10
159.114643
 20
737.402327
 10
159.155233
 20
737.351648
 10
159.342374
 20
737.19541
 10
159.563561
 20
737.066967
 10
159.866783
 20
736.944
 10
160.262572
 20
736.833035
 10
160.672239
 20
736.752754
 10
160.887328
 20
736.724526
  0
LINE
  5
A3
100
AcDbEntity
  8
035-DWG
  6
CONTINUOUS
100
AcDbLine
 10
159.087278
 20
737.42527
 30
-0.421745
 11
159.11677
 21
737.392308
 31
-0.421745
  0
LINE
  5
A4
100
AcDbEntity
  8
025-DWG
  6
CONTINUOUS
100
AcDbLine
 10
160.886829
 20
736.721135
 30
-0.421745
 11
160.931069
 21
736.73876
 31
-0.421745
  0
LWPOLYLINE
  5
A5
100
AcDbEntity
  8
025-DWG
  6
CONTINUOUS
100
AcDbPolyline
 90
        5
 70
   128
 43
0.0
 38
-0.421745
 10
158.878877
 20
738.062934
 10
158.888379
 20
737.877635
 10
158.933187
 20
737.699079
 10
159.011669
 20
737.533765
 10
159.110572
 20
737.399237
  0
LWPOLYLINE
  5
A6
100
AcDbEntity
  8
025-DWG
  6
CONTINUOUS
100
AcDbPolyline
 90
        9
 70
   128
 43
0.0
 38
-0.421745
 10
160.808375
 20
737.712631
 10
160.785759
 20
737.496222
 10
160.774256
 20
737.290246
 10
160.774421
 20
737.104634
 10
160.786247
 20
736.948335
 10
160.809162
 20
736.828884
 10
160.842062
 20
736.75204
 10
160.883362
 20
736.721508
 10
160.886829
 20
736.721135
  0
LINE
  5
A7
100
AcDbEntity
  8
025-DWG
  6
CONTINUOUS
100
AcDbLine
 10
160.808375
 20
737.712631
 30
-0.421745
 11
164.248049
 21
737.25244
 31
-0.421745
  0
LWPOLYLINE
  5
A8
100
AcDbEntity
  8
025-DWG
  6
CONTINUOUS
100
AcDbPolyline
 90
        5
 70
   128
 43
0.0
 38
-0.421745
 10
160.808375
 20
743.57733
 10
160.026618
 20
743.657601
 10
159.393933
 20
743.759912
 10
158.977548
 20
743.87296
 10
158.878877
 20
743.921419
  0
LWPOLYLINE
  5
A9
100
AcDbEntity
  8
025-DWG
  6
CONTINUOUS
100
AcDbPolyline
 90
        5
 70
   128
 43
0.0
 38
-0.421745
 10
159.943957
 20
744.897365
 10
160.133031
 20
744.781108
 10
160.475352
 20
744.669663
 10
160.929918
 20
744.577288
 10
161.101567
 20
744.552268
  0
LWPOLYLINE
  5
AA
100
AcDbEntity
  8
025-DWG
  6
CONTINUOUS
100
AcDbPolyline
 90
        9
 70
   128
 43
0.0
 38
-0.421745
 10
159.943957
 20
744.897365
 10
159.746439
 20
744.886068
 10
159.55347
 20
744.835627
 10
159.372882
 20
744.748091
 10
159.212002
 20
744.62701
 10
159.077358
 20
744.477299
 10
158.974414
 20
744.305031
 10
158.907347
 20
744.117197
 10
158.878877
 20
743.921419
  0
LWPOLYLINE
  5
AB
100
AcDbEntity
  8
025-DWG
  6
CONTINUOUS
100
AcDbPolyline
 90
        9
 70
   128
 43
0.0
 38
-0.421745
 10
161.101567
 20
744.552268
 10
161.061079
 20
744.506322
 10
161.019248
 20
744.432542
 10
160.977328
 20
744.333137
 10
160.936575
 20
744.211087
 10
160.89821
 20
744.070049
 10
160.863382
 20
743.914247
 10
160.833135
 20
743.748351
 10
160.808375
 20
743.57733
  0
LWPOLYLINE
  5
AC
100
AcDbEntity
  8
035-DWG
  6
CONTINUOUS
100
AcDbPolyline
 90
        9
 70
   128
 43
0.0
 38
-0.421745
 10
154.258373
 20
742.819047
 10
154.201266
 20
742.888905
 10
154.150642
 20
742.963701
 10
154.106973
 20
743.04276
 10
154.070615
 20
743.125436
 10
154.041865
 20
743.211056
 10
154.020958
 20
743.29892
 10
154.008063
 20
743.388312
 10
154.003287
 20
743.478504
  0
LWPOLYLINE
  5
AD
100
AcDbEntity
  8
025-DWG
  6
CONTINUOUS
100
AcDbPolyline
 90
        8
 70
   128
 43
0.0
 38
-0.421745
 10
158.878877
 20
743.921419
 10
157.615218
 20
745.295411
 10
156.53338
 20
746.4717
 10
155.638457
 20
747.444751
 10
154.93554
 20
748.209032
 10
154.416488
 20
748.773395
 10
154.105567
 20
749.111457
 10
154.006096
 20
749.219611
  0
LINE
  5
AE
100
AcDbEntity
  8
035-DWG
  6
CONTINUOUS
100
AcDbLine
 10
154.003257
 20
749.219577
 30
-0.421745
 11
154.003257
 21
743.478882
 31
-0.421745
  0
LWPOLYLINE
  5
AF
100
AcDbEntity
  8
025-DWG
  6
CONTINUOUS
100
AcDbPolyline
 90
        9
 70
   128
 43
0.0
 38
-0.421745
 10
155.09327
 20
750.21576
 10
155.091147
 20
750.218088
 10
155.199646
 20
750.099128
 10
155.504291
 20
749.765112
 10
156.002987
 20
749.218335
 10
156.693021
 20
748.461771
 10
157.587614
 20
747.480922
 10
158.673139
 20
746.290727
 10
159.943957
 20
744.897365
  0
LWPOLYLINE
  5
B0
100
AcDbEntity
  8
025-DWG
  6
CONTINUOUS
100
AcDbPolyline
 90
        9
 70
   128
 43
0.0
 38
-0.421745
 10
165.721264
 20
735.73479
 10
165.695887
 20
735.757002
 10
165.690883
 20
735.809011
 10
165.706434
 20
735.888926
 10
165.741975
 20
735.993843
 10
165.796214
 20
736.119947
 10
165.867178
 20
736.262656
 10
165.952289
 20
736.416781
 10
166.048453
 20
736.57672
  0
LINE
  5
B1
100
AcDbEntity
  8
035-DWG
  6
CONTINUOUS
100
AcDbLine
 10
169.11626
 20
748.99179
 30
-0.421745
 11
155.09352
 21
750.218621
 31
-0.421745
  0
LWPOLYLINE
  5
B2
100
AcDbEntity
  8
035-DWG
  6
CONTINUOUS
100
AcDbPolyline
 90
        6
 70
   128
 43
0.0
 38
-0.421745
 10
217.777764
 20
735.708899
 10
217.760872
 20
736.005586
 10
217.713548
 20
736.276738
 10
217.632239
 20
736.526732
 10
217.51486
 20
736.721594
 10
217.478669
 20
736.757116
  0
LWPOLYLINE
  5
B3
100
AcDbEntity
  8
035-DWG
  6
CONTINUOUS
100
AcDbPolyline
 90
        5
 70
   128
 43
0.0
 38
-0.421745
 10
217.478669
 20
736.757116
 10
215.899136
 20
738.095716
 10
214.437907
 20
739.338119
 10
213.095829
 20
740.482606
 10
211.879797
 20
741.522371
  0
ARC
  5
B4
100
AcDbEntity
  8
035-DWG
100
AcDbCircle
 10
392.9
 20
576.652064
 30
-0.421745
 40
18.5
100
AcDbArc
 50
90.0
 51
113.07227
  0
LINE
  5
B5
100
AcDbEntity
  8
035-DWG
100
AcDbLine
 10
388.65
 20
585.957484
 30
-0.421745
 11
392.9
 21
585.957484
 31
-0.421745
  0
POLYLINE
  5
B6
100
AcDbEntity
  8
035-DWG
100
AcDb2dPolyline
 66
     1
 10
0.0
 20
0.0
 30
-0.421745
  0
VERTEX
  5
B7
100
AcDbEntity
  8
035-DWG
100
AcDbVertex
100
AcDb2dVertex
 10
380.40681
 20
619.714979
 30
-0.421745
 42
0.032906
  0
VERTEX
  5
B8
100
AcDbEntity
  8
035-DWG
100
AcDbVertex
100
AcDb2dVertex
 10
387.626244
 20
618.544426
 30
-0.421745
 42
0.023742
  0
VERTEX
  5
B9
100
AcDbEntity
  8
035-DWG
100
AcDbVertex
100
AcDb2dVertex
 10
392.9
 20
618.293861
 30
-0.421745
 42
0.023742
  0
SEQEND
  5
BA
100
AcDbEntity
  8
035-DWG
  0
POLYLINE
  5
BB
100
AcDbEntity
  8
035-DWG
100
AcDb2dPolyline
 66
     1
 10
0.0
 20
0.0
 30
-0.421745
  0
VERTEX
  5
BC
100
AcDbEntity
  8
035-DWG
100
AcDbVertex
100
AcDb2dVertex
 10
382.4
 20
620.013332
 30
-0.421745
 42
0.023742
  0
VERTEX
  5
BD
100
AcDbEntity
  8
035-DWG
100
AcDbVertex
100
AcDb2dVertex
 10
387.626244
 20
619.263896
 30
-0.421745
 42
0.023742
  0
VERTEX
  5
BE
100
AcDbEntity
  8
035-DWG
100
AcDbVertex
100
AcDb2dVertex
 10
392.9
 20
619.013332
 30
-0.421745
 42
0.023742
  0
SEQEND
  5
BF
100
AcDbEntity
  8
035-DWG
  0
ARC
  5
C0
100
AcDbEntity
  8
035-DWG
100
AcDbCircle
 10
392.9
 20
577.457484
 30
-0.421745
 40
4.6
100
AcDbArc
 50
32.023996
 51
147.976004
  0
LINE
  5
C1
100
AcDbEntity
  8
035-DWG
100
AcDbLine
 10
388.65
 20
582.957484
 30
-0.421745
 11
392.9
 21
582.957484
 31
-0.421745
  0
LWPOLYLINE
  5
C2
100
AcDbEntity
  8
035-DWG
100
AcDbPolyline
 90
        4
 70
   128
 43
0.0
 38
-0.421745
 10
392.9
 20
582.957484
 42
0.154846
 10
390.842379
 20
582.3046
 42
0.106775
 10
388.749283
 20
580.028552
 42
0.004392
 10
388.65
 20
579.85596
 42
0.004392
  0
LINE
  5
C3
100
AcDbEntity
  8
035-DWG
100
AcDbLine
 10
412.1825
 20
559.157484
 30
-0.421745
 11
373.58
 21
559.157484
 31
-0.421745
  0
LINE
  5
C4
100
AcDbEntity
  8
035-DWG
100
AcDbLine
 10
412.2
 20
559.457484
 30
-0.421745
 11
373.6
 21
559.457484
 31
-0.421745
  0
LINE
  5
C5
100
AcDbEntity
  8
035-DWG
100
AcDbLine
 10
411.143986
 20
570.957484
 30
-0.421745
 11
374.656014
 21
570.957484
 31
-0.421745
  0
LINE
  5
C6
100
AcDbEntity
  8
035-DWG
100
AcDbLine
 10
384.9
 20
513.157484
 30
-0.421745
 11
400.9
 21
513.157484
 31
-0.421745
  0
LINE
  5
C7
100
AcDbEntity
  8
025-DWG
100
AcDbLine
 10
384.9
 20
511.157484
 30
-0.421745
 11
400.9
 21
511.157484
 31
-0.421745
  0
LINE
  5
C8
100
AcDbEntity
  8
035-DWG
100
AcDbLine
 10
384.9
 20
516.157484
 30
-0.421745
 11
400.9
 21
516.157484
 31
-0.421745
  0
LINE
  5
C9
100
AcDbEntity
  8
035-DWG
100
AcDbLine
 10
385.9
 20
510.157484
 30
-0.421745
 11
392.9
 21
510.157484
 31
-0.421745
  0
LINE
  5
CA
100
AcDbEntity
  8
035-DWG
100
AcDbLine
 10
402.9
 20
532.157484
 30
-0.421745
 11
382.9
 21
532.157484
 31
-0.421745
  0
LINE
  5
CB
100
AcDbEntity
  8
035-DWG
100
AcDbLine
 10
373.58
 20
559.157484
 30
-0.421745
 11
372.673279
 21
533.192383
 31
-0.421745
  0
LINE
  5
CC
100
AcDbEntity
  8
035-DWG
100
AcDbLine
 10
370.164468
 20
568.503496
 30
-0.421745
 11
369.0
 21
535.157484
 31
-0.421745
  0
ARC
  5
CD
100
AcDbEntity
  8
035-DWG
100
AcDbCircle
 10
382.9
 20
514.657484
 30
-0.421745
 40
2.5
100
AcDbArc
 50
323.130102
 51
36.869898
  0
ARC
  5
CE
100
AcDbEntity
  8
035-DWG
100
AcDbCircle
 10
385.9
 20
511.157484
 30
-0.421745
 40
1.0
100
AcDbArc
 50
180.0
 51
270.0
  0
LINE
  5
CF
100
AcDbEntity
  8
035-DWG
100
AcDbLine
 10
384.9
 20
511.157484
 30
-0.421745
 11
384.9
 21
513.157484
 31
-0.421745
  0
LINE
  5
D0
100
AcDbEntity
  8
025-DWG
100
AcDbLine
 10
384.9
 20
530.157484
 30
-0.421745
 11
387.765211
 21
530.157484
 31
-0.421745
  0
LINE
  5
D1
100
AcDbEntity
  8
035-DWG
100
AcDbLine
 10
384.9
 20
516.157484
 30
-0.421745
 11
384.9
 21
530.157484
 31
-0.421745
  0
ARC
  5
D2
100
AcDbEntity
  8
035-DWG
100
AcDbCircle
 10
382.9
 20
530.157484
 30
-0.421745
 40
2.0
100
AcDbArc
 50
0.0
 51
90.0
  0
ARC
  5
D3
100
AcDbEntity
  8
035-DWG
100
AcDbCircle
 10
373.67267
 20
533.157484
 30
-0.421745
 40
1.0
100
AcDbArc
 50
178.0
 51
270.0
  0
LINE
  5
D4
100
AcDbEntity
  8
035-DWG
100
AcDbLine
 10
382.9
 20
532.157484
 30
-0.421745
 11
373.67267
 21
532.157484
 31
-0.421745
  0
LINE
  5
D5
100
AcDbEntity
  8
035-DWG
100
AcDbLine
 10
372.741902
 20
535.157484
 30
-0.421745
 11
369.0
 21
535.157484
 31
-0.421745
  0
LINE
  5
D6
100
AcDbEntity
  8
035-DWG
100
AcDbLine
 10
388.65
 20
571.457484
 30
-0.421745
 11
388.65
 21
594.657271
 31
-0.421745
  0
LINE
  5
D7
100
AcDbEntity
  8
035-DWG
100
AcDbLine
 10
385.65
 20
570.957484
 30
-0.421745
 11
385.65
 21
593.672272
 31
-0.421745
  0
LINE
  5
D8
100
AcDbEntity
  8
035-DWG
100
AcDbLine
 10
379.972106
 20
578.990493
 30
-0.421745
 11
382.007829
 21
595.850535
 31
-0.421745
  0
LINE
  5
D9
100
AcDbEntity
  8
025-DWG
100
AcDbLine
 10
382.218751
 20
594.772908
 30
-0.421745
 11
382.218751
 21
584.600104
 31
-0.421745
  0
LINE
  5
DA
100
AcDbEntity
  8
025-DWG
100
AcDbLine
 10
381.818751
 20
594.284575
 30
-0.421745
 11
381.818751
 21
584.600104
 31
-0.421745
  0
LINE
  5
DB
100
AcDbEntity
  8
035-DWG
100
AcDbLine
 10
389.0
 20
570.957484
 30
-0.421745
 11
389.0
 21
579.896746
 31
-0.421745
  0
LINE
  5
DC
100
AcDbEntity
  8
025-DWG
100
AcDbLine
 10
388.174892
 20
570.957484
 30
-0.421745
 11
388.174892
 21
561.457484
 31
-0.421745
  0
LINE
  5
DD
100
AcDbEntity
  8
025-DWG
100
AcDbLine
 10
388.374414
 20
570.761772
 30
-0.421745
 11
388.174892
 21
561.457484
 31
-0.421745
  0
LINE
  5
DE
100
AcDbEntity
  8
025-DWG
100
AcDbLine
 10
385.905633
 20
570.757484
 30
-0.421745
 11
385.905633
 21
561.457484
 31
-0.421745
  0
LINE
  5
DF
100
AcDbEntity
  8
025-DWG
100
AcDbLine
 10
381.73208
 20
570.757484
 30
-0.421745
 11
381.73208
 21
561.457484
 31
-0.421745
  0
LINE
  5
E0
100
AcDbEntity
  8
025-DWG
100
AcDbLine
 10
383.74668
 20
570.757484
 30
-0.421745
 11
383.74668
 21
561.457484
 31
-0.421745
  0
LINE
  5
E1
100
AcDbEntity
  8
025-DWG
100
AcDbLine
 10
381.73208
 20
561.457484
 30
-0.421745
 11
382.331063
 21
570.957484
 31
-0.421745
  0
LINE
  5
E2
100
AcDbEntity
  8
025-DWG
100
AcDbLine
 10
378.260248
 20
570.557484
 30
-0.421745
 11
378.260248
 21
561.457484
 31
-0.421745
  0
LINE
  5
E3
100
AcDbEntity
  8
025-DWG
100
AcDbLine
 10
379.893605
 20
570.557484
 30
-0.421745
 11
379.893605
 21
561.457484
 31
-0.421745
  0
LINE
  5
E4
100
AcDbEntity
  8
025-DWG
100
AcDbLine
 10
378.260248
 20
561.457484
 30
-0.421745
 11
378.953154
 21
570.957484
 31
-0.421745
  0
LINE
  5
E5
100
AcDbEntity
  8
025-DWG
100
AcDbLine
 10
376.857769
 20
570.957484
 30
-0.421745
 11
376.857769
 21
561.457484
 31
-0.421745
  0
LINE
  5
E6
100
AcDbEntity
  8
025-DWG
100
AcDbLine
 10
385.905633
 20
561.457484
 30
-0.421745
 11
388.174892
 21
561.457484
 31
-0.421745
  0
LINE
  5
E7
100
AcDbEntity
  8
025-DWG
100
AcDbLine
 10
378.260248
 20
561.457484
 30
-0.421745
 11
379.893605
 21
561.457484
 31
-0.421745
  0
LINE
  5
E8
100
AcDbEntity
  8
025-DWG
100
AcDbLine
 10
381.73208
 20
561.457484
 30
-0.421745
 11
383.74668
 21
561.457484
 31
-0.421745
  0
ARC
  5
E9
100
AcDbEntity
  8
035-DWG
100
AcDbCircle
 10
378.660248
 20
570.557484
 30
-0.421745
 40
0.4
100
AcDbArc
 50
90.0
 51
180.0
  0
ARC
  5
EA
100
AcDbEntity
  8
035-DWG
100
AcDbCircle
 10
381.93208
 20
570.757484
 30
-0.421745
 40
0.2
100
AcDbArc
 50
90.0
 51
180.0
  0
ARC
  5
EB
100
AcDbEntity
  8
035-DWG
100
AcDbCircle
 10
380.293605
 20
570.557484
 30
-0.421745
 40
0.4
100
AcDbArc
 50
90.0
 51
180.0
  0
ARC
  5
EC
100
AcDbEntity
  8
035-DWG
100
AcDbCircle
 10
386.105633
 20
570.757484
 30
-0.421745
 40
0.2
100
AcDbArc
 50
90.0
 51
180.0
  0
ARC
  5
ED
100
AcDbEntity
  8
035-DWG
100
AcDbCircle
 10
383.94668
 20
570.757484
 30
-0.421745
 40
0.2
100
AcDbArc
 50
90.0
 51
180.0
  0
LINE
  5
EE
100
AcDbEntity
  8
035-DWG
100
AcDbLine
 10
375.6
 20
559.157484
 30
-0.421745
 11
375.6
 21
559.457484
 31
-0.421745
  0
LINE
  5
EF
100
AcDbEntity
  8
035-DWG
100
AcDbLine
 10
373.6
 20
561.457484
 30
-0.421745
 11
373.906471
 21
570.233659
 31
-0.421745
  0
LINE
  5
F0
100
AcDbEntity
  8
025-DWG
100
AcDbLine
 10
375.708286
 20
570.457484
 30
-0.421745
 11
375.708286
 21
561.457484
 31
-0.421745
  0
LINE
  5
F1
100
AcDbEntity
  8
025-DWG
100
AcDbLine
 10
374.236542
 20
570.82921
 30
-0.421745
 11
374.236542
 21
561.457484
 31
-0.421745
  0
LINE
  5
F2
100
AcDbEntity
  8
025-DWG
100
AcDbLine
 10
374.829926
 20
570.946809
 30
-0.421745
 11
374.829926
 21
561.457484
 31
-0.421745
  0
LINE
  5
F3
100
AcDbEntity
  8
035-DWG
100
AcDbLine
 10
373.6
 20
561.457484
 30
-0.421745
 11
373.6
 21
559.457484
 31
-0.421745
  0
LINE
  5
F4
100
AcDbEntity
  8
025-DWG
100
AcDbLine
 10
374.236542
 20
561.457484
 30
-0.421745
 11
374.829926
 21
561.457484
 31
-0.421745
  0
LINE
  5
F5
100
AcDbEntity
  8
035-DWG
100
AcDbLine
 10
374.956014
 20
570.957484
 30
-0.421745
 11
374.956471
 21
570.957484
 31
-0.421745
  0
ARC
  5
F6
100
AcDbEntity
  8
035-DWG
100
AcDbCircle
 10
374.656014
 20
570.207484
 30
-0.421745
 40
0.75
100
AcDbArc
 50
90.0
 51
178.0
  0
ARC
  5
F7
100
AcDbEntity
  8
035-DWG
100
AcDbCircle
 10
376.208286
 20
570.457484
 30
-0.421745
 40
0.5
100
AcDbArc
 50
90.0
 51
180.0
  0
LINE
  5
F8
100
AcDbEntity
  8
025-DWG
100
AcDbLine
 10
375.708286
 20
561.457484
 30
-0.421745
 11
376.450463
 21
570.957484
 31
-0.421745
  0
LINE
  5
F9
100
AcDbEntity
  8
025-DWG
100
AcDbLine
 10
375.708286
 20
561.457484
 30
-0.421745
 11
376.857769
 21
561.457484
 31
-0.421745
  0
LINE
  5
FA
100
AcDbEntity
  8
035-DWG
100
AcDbLine
 10
388.65
 20
579.959456
 30
-0.421745
 11
389.0
 21
579.959456
 31
-0.421745
  0
LINE
  5
FB
100
AcDbEntity
  8
035-DWG
100
AcDbLine
 10
388.65
 20
574.955512
 30
-0.421745
 11
389.0
 21
574.955512
 31
-0.421745
  0
LINE
  5
FC
100
AcDbEntity
  8
025-DWG
100
AcDbLine
 10
385.65
 20
580.25054
 30
-0.421745
 11
383.693068
 21
580.25054
 31
-0.421745
  0
LINE
  5
FD
100
AcDbEntity
  8
025-DWG
100
AcDbLine
 10
381.632632
 20
580.25054
 30
-0.421745
 11
380.124247
 21
580.25054
 31
-0.421745
  0
LINE
  5
FE
100
AcDbEntity
  8
035-DWG
100
AcDbLine
 10
380.4
 20
570.957484
 30
-0.421745
 11
388.15
 21
570.957484
 31
-0.421745
  0
LINE
  5
FF
100
AcDbEntity
  8
035-DWG
100
AcDbLine
 10
379.9
 20
577.791774
 30
-0.421745
 11
379.9
 21
571.457484
 31
-0.421745
  0
ELLIPSE
  5
100
100
AcDbEntity
  8
035-DWG
100
AcDbEllipse
 10
379.9
 20
574.675393
 30
-0.421745
 11
-4.150000000000005
 21
0.0
 31
0.0
210
0.0
220
0.0
230
1.0
 40
0.895892
 41
1.661791201468957
 42
4.708025422727595
  0
ARC
  5
101
100
AcDbEntity
  8
035-DWG
100
AcDbCircle
 10
380.4
 20
571.457484
 30
-0.421745
 40
0.5
100
AcDbArc
 50
180.0
 51
270.0
  0
LINE
  5
102
100
AcDbEntity
  8
035-DWG
100
AcDbLine
 10
385.65
 20
578.393302
 30
-0.421745
 11
379.918108
 21
578.393302
 31
-0.421745
  0
ARC
  5
103
100
AcDbEntity
  8
035-DWG
100
AcDbCircle
 10
389.9
 20
577.791774
 30
-0.421745
 40
10.0
100
AcDbArc
 50
173.115294
 51
180.0
  0
ARC
  5
104
100
AcDbEntity
  8
035-DWG
100
AcDbCircle
 10
388.15
 20
571.457484
 30
-0.421745
 40
0.5
100
AcDbArc
 50
270.0
 51
0.0
  0
LINE
  5
105
100
AcDbEntity
  8
035-DWG
100
AcDbLine
 10
373.856607
 20
568.805742
 30
-0.421745
 11
372.775822
 21
570.641169
 31
-0.421745
  0
ARC
  5
106
100
AcDbEntity
  8
035-DWG
100
AcDbCircle
 10
393.614586
 20
542.520964
 30
-0.421745
 40
35.0
100
AcDbArc
 50
113.06937
 51
132.067325
  0
LINE
  5
107
100
AcDbEntity
  8
035-DWG
100
AcDbLine
 10
370.164468
 20
568.503496
 30
-0.421745
 11
373.611365
 21
561.782935
 31
-0.421745
  0
ARC
  5
108
100
AcDbEntity
  8
035-DWG
100
AcDbCircle
 10
531.912763
 20
651.783628
 30
-0.421745
 40
160.0
100
AcDbArc
 50
193.844638
 51
200.46174
  0
ARC
  5
109
100
AcDbEntity
  8
025-DWG
100
AcDbCircle
 10
392.9
 20
576.652064
 30
-0.421745
 40
18.5
100
AcDbArc
 50
114.804395
 51
124.767062
  0
LWPOLYLINE
  5
10A
100
AcDbEntity
  8
025-DWG
100
AcDbPolyline
 90
        2
 70
     0
 43
1.0
 38
-0.421745
 10
380.672299
 20
627.7
 10
383.672299
 20
627.7
  0
SPLINE
  5
10B
100
AcDbEntity
  8
035-DWG
100
AcDbSpline
210
0.0
220
0.0
230
-1.0
 70
     8
 71
     3
 72
    16
 73
    12
 74
     0
 42
0.0000001
 43
0.0000001
 40
4.712388980384689
 40
4.712388980384689
 40
4.712388980384689
 40
4.712388980384689
 40
4.989757547434725
 40
4.989757547434725
 40
5.544494681534798
 40
5.544494681534798
 40
5.894114464376477
 40
5.894114464376477
 40
6.243734247218156
 40
6.243734247218156
 40
6.499619430482447
 40
6.499619430482447
 40
6.499619430482447
 40
6.499619430482447
 10
382.4000000000003
 20
620.0133317629028
 30
-0.4217447821265261
 10
381.8779524533779
 20
620.0133317629028
 30
-0.4217447821265261
 10
381.3558799916299
 20
619.9536699489321
 30
-0.4217447821265261
 10
379.8331794505961
 20
619.596785984334
 30
-0.4217447821265261
 10
378.8736088963812
 20
619.1192969269341
 30
-0.4217447821265261
 10
377.6147783912781
 20
617.981382144817
 30
-0.4217447821265261
 10
377.2036353056585
 20
617.4534008651989
 30
-0.4217447821265261
 10
376.6137141202505
 20
616.2688424479807
 30
-0.4217447821265261
 10
376.4373432170496
 20
615.612178574619
 30
-0.4217447821265261
 10
376.3820337529371
 20
614.4586480852654
 30
-0.4217447821265261
 10
376.4354650090099
 20
613.9674516718719
 30
-0.4217447821265261
 10
376.5610594421789
 20
613.4972307852399
 30
-0.4217447821265261
  0
LINE
  5
10C
100
AcDbEntity
  8
035-DWG
100
AcDbLine
 10
412.22
 20
559.157484
 30
-0.421745
 11
413.126721
 21
533.192383
 31
-0.421745
  0
LINE
  5
10D
100
AcDbEntity
  8
035-DWG
100
AcDbLine
 10
415.635532
 20
568.503496
 30
-0.421745
 11
416.8
 21
535.157484
 31
-0.421745
  0
ARC
  5
10E
100
AcDbEntity
  8
035-DWG
100
AcDbCircle
 10
412.12733
 20
533.157484
 30
-0.421745
 40
1.0
100
AcDbArc
 50
270.0
 51
2.0
  0
LINE
  5
10F
100
AcDbEntity
  8
035-DWG
100
AcDbLine
 10
412.12733
 20
532.157484
 30
-0.421745
 11
402.9
 21
532.157484
 31
-0.421745
  0
LINE
  5
110
100
AcDbEntity
  8
035-DWG
100
AcDbLine
 10
413.058098
 20
535.157484
 30
-0.421745
 11
416.8
 21
535.157484
 31
-0.421745
  0
LINE
  5
111
100
AcDbEntity
  8
035-DWG
100
AcDbLine
 10
392.9
 20
510.157484
 30
-0.421745
 11
399.9
 21
510.157484
 31
-0.421745
  0
LINE
  5
112
100
AcDbEntity
  8
025-DWG
100
AcDbLine
 10
391.98844
 20
530.157484
 30
-0.421745
 11
400.9
 21
530.157484
 31
-0.421745
  0
ARC
  5
113
100
AcDbEntity
  8
035-DWG
100
AcDbCircle
 10
402.9
 20
514.657484
 30
-0.421745
 40
2.5
100
AcDbArc
 50
143.130102
 51
216.869898
  0
LINE
  5
114
100
AcDbEntity
  8
035-DWG
100
AcDbLine
 10
400.9
 20
511.157484
 30
-0.421745
 11
400.9
 21
513.157484
 31
-0.421745
  0
LINE
  5
115
100
AcDbEntity
  8
035-DWG
100
AcDbLine
 10
400.9
 20
516.157484
 30
-0.421745
 11
400.9
 21
530.157484
 31
-0.421745
  0
ARC
  5
116
100
AcDbEntity
  8
035-DWG
100
AcDbCircle
 10
399.9
 20
511.157484
 30
-0.421745
 40
1.0
100
AcDbArc
 50
270.0
 51
360.0
  0
ARC
  5
117
100
AcDbEntity
  8
035-DWG
100
AcDbCircle
 10
402.9
 20
530.157484
 30
-0.421745
 40
2.0
100
AcDbArc
 50
90.0
 51
180.0
  0
LINE
  5
118
100
AcDbEntity
  8
035-DWG
100
AcDbLine
 10
518.941784
 20
484.3
 30
-0.421745
 11
518.941784
 21
450.3
 31
-0.421745
  0
LINE
  5
119
100
AcDbEntity
  8
035-DWG
100
AcDbLine
 10
529.548385
 20
484.3
 30
-0.421745
 11
529.548385
 21
450.3
 31
-0.421745
  0
LINE
  5
11A
100
AcDbEntity
  8
025-DWG
100
AcDbLine
 10
521.554316
 20
479.8
 30
-0.421745
 11
521.554316
 21
454.8
 31
-0.421745
  0
LINE
  5
11B
100
AcDbEntity
  8
035-DWG
100
AcDbLine
 10
518.941784
 20
450.3
 30
-0.421745
 11
529.548385
 21
450.3
 31
-0.421745
  0
LINE
  5
11C
100
AcDbEntity
  8
025-DWG
100
AcDbLine
 10
521.554316
 20
454.8
 30
-0.421745
 11
527.21117
 21
454.8
 31
-0.421745
  0
LINE
  5
11D
100
AcDbEntity
  8
035-DWG
100
AcDbLine
 10
518.941784
 20
484.3
 30
-0.421745
 11
529.548385
 21
484.3
 31
-0.421745
  0
LINE
  5
11E
100
AcDbEntity
  8
025-DWG
100
AcDbLine
 10
521.554316
 20
479.8
 30
-0.421745
 11
527.21117
 21
479.8
 31
-0.421745
  0
LINE
  5
11F
100
AcDbEntity
  8
025-DWG
100
AcDbLine
 10
403.981249
 20
594.284575
 30
-0.421745
 11
403.981249
 21
584.600104
 31
-0.421745
  0
LINE
  5
120
100
AcDbEntity
  8
025-DWG
100
AcDbLine
 10
403.581249
 20
594.772908
 30
-0.421745
 11
403.581249
 21
584.600104
 31
-0.421745
  0
LINE
  5
121
100
AcDbEntity
  8
035-DWG
100
AcDbLine
 10
405.827894
 20
578.990493
 30
-0.421745
 11
403.792171
 21
595.850535
 31
-0.421745
  0
LINE
  5
122
100
AcDbEntity
  8
035-DWG
100
AcDbLine
 10
397.15
 20
571.457484
 30
-0.421745
 11
397.15
 21
594.657271
 31
-0.421745
  0
LINE
  5
123
100
AcDbEntity
  8
035-DWG
100
AcDbLine
 10
400.15
 20
570.957484
 30
-0.421745
 11
400.15
 21
593.672272
 31
-0.421745
  0
LINE
  5
124
100
AcDbEntity
  8
035-DWG
100
AcDbLine
 10
410.2
 20
559.157484
 30
-0.421745
 11
410.2
 21
559.457484
 31
-0.421745
  0
LINE
  5
125
100
AcDbEntity
  8
035-DWG
100
AcDbLine
 10
410.2
 20
559.157484
 30
-0.421745
 11
410.2
 21
559.457484
 31
-0.421745
  0
LINE
  5
126
100
AcDbEntity
  8
025-DWG
100
AcDbLine
 10
402.05332
 20
570.657484
 30
-0.421745
 11
402.05332
 21
561.457484
 31
-0.421745
  0
LINE
  5
127
100
AcDbEntity
  8
025-DWG
100
AcDbLine
 10
401.379156
 20
570.957484
 30
-0.421745
 11
402.05332
 21
561.457484
 31
-0.421745
  0
LINE
  5
128
100
AcDbEntity
  8
035-DWG
100
AcDbLine
 10
412.2
 20
561.457484
 30
-0.421745
 11
411.893529
 21
570.233659
 31
-0.421745
  0
LINE
  5
129
100
AcDbEntity
  8
025-DWG
100
AcDbLine
 10
411.487436
 20
570.874224
 30
-0.421745
 11
411.487436
 21
561.523422
 31
-0.421745
  0
LINE
  5
12A
100
AcDbEntity
  8
025-DWG
100
AcDbLine
 10
410.970074
 20
570.357484
 30
-0.421745
 11
410.970074
 21
561.457484
 31
-0.421745
  0
LINE
  5
12B
100
AcDbEntity
  8
025-DWG
100
AcDbLine
 10
410.091714
 20
570.957484
 30
-0.421745
 11
410.091714
 21
561.457484
 31
-0.421745
  0
LINE
  5
12C
100
AcDbEntity
  8
025-DWG
100
AcDbLine
 10
404.06792
 20
570.957484
 30
-0.421745
 11
404.06792
 21
561.457484
 31
-0.421745
  0
LINE
  5
12D
100
AcDbEntity
  8
025-DWG
100
AcDbLine
 10
405.906395
 20
570.657484
 30
-0.421745
 11
405.906395
 21
561.457484
 31
-0.421745
  0
LINE
  5
12E
100
AcDbEntity
  8
025-DWG
100
AcDbLine
 10
405.906395
 20
561.457484
 30
-0.421745
 11
405.179262
 21
570.957484
 31
-0.421745
  0
LINE
  5
12F
100
AcDbEntity
  8
025-DWG
100
AcDbLine
 10
407.539752
 20
570.957484
 30
-0.421745
 11
407.539752
 21
561.457484
 31
-0.421745
  0
LINE
  5
130
100
AcDbEntity
  8
025-DWG
100
AcDbLine
 10
408.942231
 20
570.457484
 30
-0.421745
 11
408.942231
 21
561.457484
 31
-0.421745
  0
LINE
  5
131
100
AcDbEntity
  8
025-DWG
100
AcDbLine
 10
408.143344
 20
570.957484
 30
-0.421745
 11
408.942231
 21
561.457484
 31
-0.421745
  0
LINE
  5
132
100
AcDbEntity
  8
025-DWG
100
AcDbLine
 10
411.487436
 20
561.523422
 30
-0.421745
 11
412.197697
 21
561.523422
 31
-0.421745
  0
LINE
  5
133
100
AcDbEntity
  8
025-DWG
100
AcDbLine
 10
407.539752
 20
561.457484
 30
-0.421745
 11
408.942231
 21
561.457484
 31
-0.421745
  0
LINE
  5
134
100
AcDbEntity
  8
025-DWG
100
AcDbLine
 10
405.906395
 20
561.457484
 30
-0.421745
 11
404.06792
 21
561.457484
 31
-0.421745
  0
LINE
  5
135
100
AcDbEntity
  8
025-DWG
100
AcDbLine
 10
410.091714
 20
561.457484
 30
-0.421745
 11
410.970074
 21
561.457484
 31
-0.421745
  0
LINE
  5
136
100
AcDbEntity
  8
035-DWG
100
AcDbLine
 10
412.2
 20
561.457484
 30
-0.421745
 11
412.2
 21
559.457484
 31
-0.421745
  0
ARC
  5
137
100
AcDbEntity
  8
035-DWG
100
AcDbCircle
 10
411.143986
 20
570.207484
 30
-0.421745
 40
0.75
100
AcDbArc
 50
2.0
 51
90.0
  0
ARC
  5
138
100
AcDbEntity
  8
035-DWG
100
AcDbCircle
 10
405.606395
 20
570.657484
 30
-0.421745
 40
0.3
100
AcDbArc
 50
0.0
 51
90.0
  0
ARC
  5
139
100
AcDbEntity
  8
035-DWG
100
AcDbCircle
 10
410.370074
 20
570.357484
 30
-0.421745
 40
0.6
100
AcDbArc
 50
0.0
 51
90.0
  0
ARC
  5
13A
100
AcDbEntity
  8
035-DWG
100
AcDbCircle
 10
408.442231
 20
570.457484
 30
-0.421745
 40
0.5
100
AcDbArc
 50
0.0
 51
90.0
  0
LINE
  5
13B
100
AcDbEntity
  8
035-DWG
100
AcDbLine
 10
405.9
 20
577.791774
 30
-0.421745
 11
405.9
 21
571.457484
 31
-0.421745
  0
ARC
  5
13C
100
AcDbEntity
  8
035-DWG
100
AcDbCircle
 10
405.4
 20
571.457484
 30
-0.421745
 40
0.5
100
AcDbArc
 50
270.0
 51
360.0
  0
ARC
  5
13D
100
AcDbEntity
  8
035-DWG
100
AcDbCircle
 10
395.9
 20
577.791774
 30
-0.421745
 40
10.0
100
AcDbArc
 50
360.0
 51
6.884706
  0
ELLIPSE
  5
13E
100
AcDbEntity
  8
035-DWG
100
AcDbEllipse
 10
405.9
 20
574.675393
 30
-0.421745
 11
4.150000000000005
 21
0.0
 31
0.0
210
0.0
220
0.0
230
-1.0
 40
0.895892
 41
1.661791201468957
 42
4.708025422727595
  0
LINE
  5
13F
100
AcDbEntity
  8
025-DWG
100
AcDbLine
 10
404.167368
 20
580.25054
 30
-0.421745
 11
405.675753
 21
580.25054
 31
-0.421745
  0
ARC
  5
140
100
AcDbEntity
  8
035-DWG
100
AcDbCircle
 10
392.185414
 20
542.520964
 30
-0.421745
 40
35.0
100
AcDbArc
 50
47.932675
 51
66.93063
  0
LINE
  5
141
100
AcDbEntity
  8
035-DWG
100
AcDbLine
 10
415.635532
 20
568.503496
 30
-0.421745
 11
412.188635
 21
561.782935
 31
-0.421745
  0
LINE
  5
142
100
AcDbEntity
  8
035-DWG
100
AcDbLine
 10
411.943393
 20
568.805742
 30
-0.421745
 11
413.024178
 21
570.641169
 31
-0.421745
  0
LINE
  5
143
100
AcDbEntity
  8
025-DWG
100
AcDbLine
 10
397.625108
 20
561.457484
 30
-0.421745
 11
395.281331
 21
561.457484
 31
-0.421745
  0
LINE
  5
144
100
AcDbEntity
  8
035-DWG
100
AcDbLine
 10
397.15
 20
582.957484
 30
-0.421745
 11
392.9
 21
582.957484
 31
-0.421745
  0
LWPOLYLINE
  5
145
100
AcDbEntity
  8
035-DWG
100
AcDbPolyline
 90
        4
 70
   128
 43
0.0
 38
-0.421745
 10
392.9
 20
582.957484
 42
-0.154846
 10
394.957621
 20
582.3046
 42
-0.106775
 10
397.050717
 20
580.028552
 42
-0.004392
 10
397.15
 20
579.85596
 42
-0.004392
  0
LINE
  5
146
100
AcDbEntity
  8
025-DWG
100
AcDbLine
 10
390.518669
 20
570.957484
 30
-0.421745
 11
390.518669
 21
561.457484
 31
-0.421745
  0
LINE
  5
147
100
AcDbEntity
  8
025-DWG
100
AcDbLine
 10
392.9
 20
570.957484
 30
-0.421745
 11
392.9
 21
561.457484
 31
-0.421745
  0
LINE
  5
148
100
AcDbEntity
  8
025-DWG
100
AcDbLine
 10
395.281331
 20
570.957484
 30
-0.421745
 11
395.281331
 21
561.457484
 31
-0.421745
  0
LINE
  5
149
100
AcDbEntity
  8
025-DWG
100
AcDbLine
 10
390.518669
 20
561.457484
 30
-0.421745
 11
390.776946
 21
570.957484
 31
-0.421745
  0
LINE
  5
14A
100
AcDbEntity
  8
025-DWG
100
AcDbLine
 10
390.518669
 20
561.457484
 30
-0.421745
 11
392.9
 21
561.457484
 31
-0.421745
  0
LINE
  5
14B
100
AcDbEntity
  8
035-DWG
100
AcDbLine
 10
396.8
 20
570.957484
 30
-0.421745
 11
396.8
 21
579.896746
 31
-0.421745
  0
LINE
  5
14C
100
AcDbEntity
  8
025-DWG
100
AcDbLine
 10
397.625108
 20
570.757484
 30
-0.421745
 11
397.625108
 21
561.457484
 31
-0.421745
  0
LINE
  5
14D
100
AcDbEntity
  8
025-DWG
100
AcDbLine
 10
397.625108
 20
561.457484
 30
-0.421745
 11
397.199039
 21
570.957484
 31
-0.421745
  0
LINE
  5
14E
100
AcDbEntity
  8
035-DWG
100
AcDbLine
 10
397.15
 20
579.959456
 30
-0.421745
 11
396.8
 21
579.959456
 31
-0.421745
  0
ARC
  5
14F
100
AcDbEntity
  8
035-DWG
100
AcDbCircle
 10
397.65
 20
571.457484
 30
-0.421745
 40
0.5
100
AcDbArc
 50
180.0
 51
270.0
  0
LINE
  5
150
100
AcDbEntity
  8
035-DWG
100
AcDbLine
 10
397.15
 20
574.955512
 30
-0.421745
 11
396.8
 21
574.955512
 31
-0.421745
  0
LINE
  5
151
100
AcDbEntity
  8
025-DWG
100
AcDbLine
 10
399.894367
 20
570.957484
 30
-0.421745
 11
399.894367
 21
561.457484
 31
-0.421745
  0
LINE
  5
152
100
AcDbEntity
  8
035-DWG
100
AcDbLine
 10
405.4
 20
570.957484
 30
-0.421745
 11
397.65
 21
570.957484
 31
-0.421745
  0
LINE
  5
153
100
AcDbEntity
  8
025-DWG
100
AcDbLine
 10
402.05332
 20
561.457484
 30
-0.421745
 11
399.894367
 21
561.457484
 31
-0.421745
  0
LINE
  5
154
100
AcDbEntity
  8
025-DWG
100
AcDbLine
 10
400.15
 20
580.25054
 30
-0.421745
 11
402.106932
 21
580.25054
 31
-0.421745
  0
LINE
  5
155
100
AcDbEntity
  8
035-DWG
100
AcDbLine
 10
400.15
 20
578.393302
 30
-0.421745
 11
405.881892
 21
578.393302
 31
-0.421745
  0
ARC
  5
156
100
AcDbEntity
  8
035-DWG
100
AcDbCircle
 10
253.887237
 20
651.783628
 30
-0.421745
 40
160.0
100
AcDbArc
 50
339.53826
 51
346.155362
  0
SPLINE
  5
157
100
AcDbEntity
  8
035-DWG
100
AcDbSpline
210
0.0
220
0.0
230
1.0
 70
     8
 71
     3
 72
    16
 73
    12
 74
     0
 42
0.0000001
 43
0.0000001
 40
4.712388980384689
 40
4.712388980384689
 40
4.712388980384689
 40
4.712388980384689
 40
4.989757547434725
 40
4.989757547434725
 40
5.544494681534798
 40
5.544494681534798
 40
5.894114464376477
 40
5.894114464376477
 40
6.243734247218156
 40
6.243734247218156
 40
6.499619430482447
 40
6.499619430482447
 40
6.499619430482447
 40
6.499619430482447
 10
403.4000000000005
 20
620.0133317629028
 30
-0.4217447821265261
 10
403.9220475466229
 20
620.0133317629028
 30
-0.4217447821265261
 10
404.4441200083708
 20
619.9536699489321
 30
-0.4217447821265261
 10
405.9668205494046
 20
619.596785984334
 30
-0.4217447821265261
 10
406.9263911036196
 20
619.1192969269341
 30
-0.4217447821265261
 10
408.1852216087226
 20
617.981382144817
 30
-0.4217447821265261
 10
408.5963646943423
 20
617.4534008651989
 30
-0.4217447821265261
 10
409.1862858797503
 20
616.2688424479807
 30
-0.4217447821265261
 10
409.3626567829512
 20
615.612178574619
 30
-0.4217447821265261
 10
409.4179662470637
 20
614.4586480852654
 30
-0.4217447821265261
 10
409.3645349909909
 20
613.9674516718719
 30
-0.4217447821265261
 10
409.2389405578219
 20
613.4972307852399
 30
-0.4217447821265261
  0
ARC
  5
158
100
AcDbEntity
  8
035-DWG
100
AcDbCircle
 10
392.9
 20
576.652064
 30
-0.421745
 40
18.5
100
AcDbArc
 50
66.92773
 51
90.0
  0
LINE
  5
159
100
AcDbEntity
  8
035-DWG
100
AcDbLine
 10
397.15
 20
585.957484
 30
-0.421745
 11
392.9
 21
585.957484
 31
-0.421745
  0
ARC
  5
15A
100
AcDbEntity
  8
025-DWG
100
AcDbCircle
 10
392.9
 20
576.652064
 30
-0.421745
 40
18.5
100
AcDbArc
 50
55.232938
 51
65.195605
  0
POLYLINE
  5
15B
100
AcDbEntity
  8
035-DWG
100
AcDb2dPolyline
 66
     1
 10
0.0
 20
0.0
 30
-0.421745
  0
VERTEX
  5
15C
100
AcDbEntity
  8
035-DWG
100
AcDbVertex
100
AcDb2dVertex
 10
403.4
 20
620.013332
 30
-0.421745
 42
-0.023742
  0
VERTEX
  5
15D
100
AcDbEntity
  8
035-DWG
100
AcDbVertex
100
AcDb2dVertex
 10
398.173756
 20
619.263896
 30
-0.421745
 42
-0.023742
  0
VERTEX
  5
15E
100
AcDbEntity
  8
035-DWG
100
AcDbVertex
100
AcDb2dVertex
 10
392.9
 20
619.013332
 30
-0.421745
 42
-0.023742
  0
SEQEND
  5
15F
100
AcDbEntity
  8
035-DWG
  0
POLYLINE
  5
160
100
AcDbEntity
  8
035-DWG
100
AcDb2dPolyline
 66
     1
 10
0.0
 20
0.0
 30
-0.421745
  0
VERTEX
  5
161
100
AcDbEntity
  8
035-DWG
100
AcDbVertex
100
AcDb2dVertex
 10
405.39319
 20
619.714979
 30
-0.421745
 42
-0.032906
  0
VERTEX
  5
162
100
AcDbEntity
  8
035-DWG
100
AcDbVertex
100
AcDb2dVertex
 10
398.173756
 20
618.544426
 30
-0.421745
 42
-0.023742
  0
VERTEX
  5
163
100
AcDbEntity
  8
035-DWG
100
AcDbVertex
100
AcDb2dVertex
 10
392.9
 20
618.293861
 30
-0.421745
 42
-0.023742
  0
SEQEND
  5
164
100
AcDbEntity
  8
035-DWG
  0
LWPOLYLINE
  5
165
100
AcDbEntity
  8
025-DWG
100
AcDbPolyline
 90
        2
 70
     0
 43
1.0
 38
-0.421745
 10
403.972299
 20
627.7
 10
400.972299
 20
627.7
  0
LWPOLYLINE
  5
166
100
AcDbEntity
  8
025-DWG
100
AcDbPolyline
 90
        2
 70
     0
 43
1.0
 38
-0.421745
 10
380.672299
 20
684.2
 10
383.672299
 20
684.2
  0
LWPOLYLINE
  5
167
100
AcDbEntity
  8
025-DWG
100
AcDbPolyline
 90
        2
 70
     0
 43
1.0
 38
-0.421745
 10
380.672299
 20
740.7
 10
383.672299
 20
740.7
  0
LWPOLYLINE
  5
168
100
AcDbEntity
  8
025-DWG
100
AcDbPolyline
 90
        2
 70
     0
 43
1.0
 38
-0.421745
 10
380.672299
 20
797.2
 10
383.672299
 20
797.2
  0
LWPOLYLINE
  5
169
100
AcDbEntity
  8
025-DWG
100
AcDbPolyline
 90
        2
 70
     0
 43
1.0
 38
-0.421745
 10
403.972299
 20
684.2
 10
400.972299
 20
684.2
  0
LWPOLYLINE
  5
16A
100
AcDbEntity
  8
025-DWG
100
AcDbPolyline
 90
        2
 70
     0
 43
1.0
 38
-0.421745
 10
403.972299
 20
740.7
 10
400.972299
 20
740.7
  0
LWPOLYLINE
  5
16B
100
AcDbEntity
  8
025-DWG
100
AcDbPolyline
 90
        2
 70
     0
 43
1.0
 38
-0.421745
 10
403.972299
 20
797.2
 10
400.972299
 20
797.2
  0
ARC
  5
16C
100
AcDbEntity
  8
035-DWG
100
AcDbCircle
 10
223.99878
 20
850.569091
 30
-0.421745
 40
3.8
100
AcDbArc
 50
90.0
 51
122.636898
  0
ARC
  5
16D
100
AcDbEntity
  8
035-DWG
100
AcDbCircle
 10
201.95
 20
1000.669091
 30
-0.421745
 40
2.0
100
AcDbArc
 50
90.0
 51
180.0
  0
LINE
  5
16E
100
AcDbEntity
  8
035-DWG
100
AcDbLine
 10
210.1
 20
857.169091
 30
-0.421745
 11
210.1
 21
915.92133
 31
-0.421745
  0
ARC
  5
16F
100
AcDbEntity
  8
035-DWG
100
AcDbCircle
 10
212.9
 20
857.169091
 30
-0.421745
 40
2.8
100
AcDbArc
 50
180.0
 51
270.0
  0
ARC
  5
170
100
AcDbEntity
  8
035-DWG
100
AcDbCircle
 10
215.80122
 20
850.569091
 30
-0.421745
 40
3.8
100
AcDbArc
 50
57.363102
 51
90.0
  0
ARC
  5
171
100
AcDbEntity
  8
035-DWG
100
AcDbCircle
 10
219.9
 20
856.969091
 30
-0.421745
 40
3.8
100
AcDbArc
 50
237.363102
 51
302.636898
  0
LINE
  5
172
100
AcDbEntity
  8
035-DWG
100
AcDbLine
 10
205.9
 20
849.869091
 30
-0.421745
 11
205.9
 21
838.169091
 31
-0.421745
  0
ARC
  5
173
100
AcDbEntity
  8
035-DWG
100
AcDbCircle
 10
209.2
 20
849.869091
 30
-0.421745
 40
3.3
100
AcDbArc
 50
90.0
 51
180.0
  0
LINE
  5
174
100
AcDbEntity
  8
035-DWG
  6
CONTINUOUS
100
AcDbLine
 10
220.727764
 20
923.718078
 30
-0.421745
 11
220.727764
 21
961.27799
 31
-0.421745
  0
LINE
  5
175
100
AcDbEntity
  8
025-DWG
  6
CONTINUOUS
100
AcDbLine
 10
168.998453
 20
962.145811
 30
-0.421745
 11
202.015136
 21
940.563876
 31
-0.421745
  0
LINE
  5
176
100
AcDbEntity
  8
035-DWG
  6
CONTINUOUS
100
AcDbLine
 10
193.448262
 20
945.111107
 30
-0.421745
 11
168.671264
 21
961.303881
 31
-0.421745
  0
LWPOLYLINE
  5
177
100
AcDbEntity
  8
035-DWG
  6
CONTINUOUS
100
AcDbPolyline
 90
       10
 70
   128
 43
0.0
 38
-0.421745
 10
210.020304
 20
915.87306
 10
210.1
 20
915.92133
 10
210.436518
 20
916.12444
 10
211.017075
 20
916.474296
 10
211.86966
 20
916.987086
 10
212.977611
 20
917.650914
 10
214.335946
 20
918.460642
 10
215.939683
 20
919.411132
 10
217.920458
 20
920.576937
 10
220.170735
 20
921.889913
  0
LWPOLYLINE
  5
178
100
AcDbEntity
  8
035-DWG
  6
CONTINUOUS
100
AcDbPolyline
 90
        5
 70
   128
 43
0.0
 38
-0.421745
 10
220.170735
 20
921.889913
 10
220.408272
 20
922.151816
 10
220.603656
 20
922.653304
 10
220.706072
 20
923.252
 10
220.727764
 20
923.718078
  0
LINE
  5
179
100
AcDbEntity
  8
035-DWG
  6
CONTINUOUS
100
AcDbLine
 10
194.764306
 20
944.239879
 30
-0.421745
 11
194.764306
 21
919.394103
 31
-0.421745
  0
LINE
  5
17A
100
AcDbEntity
  8
025-DWG
  6
CONTINUOUS
100
AcDbLine
 10
203.240271
 20
925.807574
 30
-0.421745
 11
203.240271
 21
937.15672
 31
-0.421745
  0
LWPOLYLINE
  5
17B
100
AcDbEntity
  8
025-DWG
  6
CONTINUOUS
100
AcDbPolyline
 90
       12
 70
   128
 43
0.0
 38
-0.421745
 10
196.752555
 20
937.066043
 10
196.710604
 20
937.120638
 10
196.553495
 20
937.121392
 10
196.40963
 20
936.910369
 10
196.280059
 20
936.498604
 10
196.166922
 20
935.893889
 10
196.071509
 20
935.118143
 10
195.993236
 20
934.175281
 10
195.933289
 20
933.106016
 10
195.890487
 20
931.912569
 10
195.865446
 20
930.651435
 10
195.857704
 20
929.419688
  0
LWPOLYLINE
  5
17C
100
AcDbEntity
  8
025-DWG
  6
CONTINUOUS
100
AcDbPolyline
 90
       15
 70
   128
 43
0.0
 38
-0.421745
 10
196.703367
 20
937.143571
 10
196.708346
 20
937.134035
 10
196.748048
 20
937.044962
 10
196.814004
 20
936.859487
 10
196.898701
 20
936.563243
 10
196.993668
 20
936.153633
 10
197.091101
 20
935.638678
 10
197.185251
 20
935.032668
 10
197.274012
 20
934.334635
 10
197.353433
 20
933.559081
 10
197.420382
 20
932.720836
 10
197.472172
 20
931.838807
 10
197.507805
 20
930.927693
 10
197.527111
 20
929.986683
 10
197.528281
 20
929.423032
  0
LWPOLYLINE
  5
17D
100
AcDbEntity
  8
025-DWG
  6
CONTINUOUS
100
AcDbPolyline
 90
       16
 70
   128
 43
0.0
 38
-0.421745
 10
195.643767
 20
934.789825
 10
195.732737
 20
935.770955
 10
195.847849
 20
936.62439
 10
195.981673
 20
937.259507
 10
196.133487
 20
937.67298
 10
196.298072
 20
937.847439
 10
196.473082
 20
937.788481
 10
196.652161
 20
937.497604
 10
196.83046
 20
936.98743
 10
197.002133
 20
936.267262
 10
197.159879
 20
935.362709
 10
197.298634
 20
934.282986
 10
197.410656
 20
933.071416
 10
197.491503
 20
931.740121
 10
197.536136
 20
930.344888
 10
197.544419
 20
929.424149
  0
LWPOLYLINE
  5
17E
100
AcDbEntity
  8
025-DWG
  6
CONTINUOUS
100
AcDbPolyline
 90
        6
 70
   128
 43
0.0
 38
-0.421745
 10
195.474727
 20
929.424149
 10
195.484898
 20
930.850982
 10
195.515297
 20
932.237882
 10
195.566525
 20
933.545182
 10
195.638894
 20
934.736081
 10
195.643767
 20
934.789825
  0
LINE
  5
17F
100
AcDbEntity
  8
025-DWG
  6
CONTINUOUS
100
AcDbLine
 10
203.990479
 20
937.15672
 30
-0.421745
 11
203.990479
 21
925.807574
 31
-0.421745
  0
LWPOLYLINE
  5
180
100
AcDbEntity
  8
025-DWG
  6
CONTINUOUS
100
AcDbPolyline
 90
        5
 70
   128
 43
0.0
 38
-0.421745
 10
203.790048
 20
923.92952
 10
202.189402
 20
922.861252
 10
200.754269
 20
921.899236
 10
199.603994
 20
921.125333
 10
198.373884
 20
920.29496
  0
LWPOLYLINE
  5
181
100
AcDbEntity
  8
025-DWG
  6
CONTINUOUS
100
AcDbPolyline
 90
        5
 70
   128
 43
0.0
 38
-0.421745
 10
197.560501
 20
921.270022
 10
198.466306
 20
921.875778
 10
199.76595
 20
922.742255
 10
201.255593
 20
923.731508
 10
203.001921
 20
924.885842
  0
LINE
  5
182
100
AcDbEntity
  8
025-DWG
  6
CONTINUOUS
100
AcDbLine
 10
197.544419
 20
929.424149
 30
-0.421745
 11
197.560501
 21
921.270022
 31
-0.421745
  0
LINE
  5
183
100
AcDbEntity
  8
025-DWG
  6
CONTINUOUS
100
AcDbLine
 10
195.465216
 20
919.863056
 30
-0.421745
 11
195.474727
 21
929.424149
 31
-0.421745
  0
LINE
  5
184
100
AcDbEntity
  8
025-DWG
  6
CONTINUOUS
100
AcDbLine
 10
195.857732
 20
929.419688
 30
-0.421745
 11
195.848264
 21
919.854329
 31
-0.421745
  0
LWPOLYLINE
  5
185
100
AcDbEntity
  8
025-DWG
  6
CONTINUOUS
100
AcDbPolyline
 90
        4
 70
   128
 43
0.0
 38
-0.421745
 10
194.769455
 20
919.394103
 10
194.861628
 20
919.45629
 10
195.173936
 20
919.666835
 10
195.465216
 20
919.863056
  0
ARC
  5
186
100
AcDbEntity
  8
035-DWG
  6
CONTINUOUS
100
AcDbCircle
 10
195.764306
 20
919.39063
 30
-0.421745
 40
1.0
100
AcDbArc
 50
179.802337
 51
260.155733
  0
LWPOLYLINE
  5
187
100
AcDbEntity
  8
025-DWG
  6
CONTINUOUS
100
AcDbPolyline
 90
        7
 70
   128
 43
0.0
 38
-0.421745
 10
200.277487
 20
919.496371
 10
200.291263
 20
919.5369
 10
200.247726
 20
919.588839
 10
200.151188
 20
919.647646
 10
199.999508
 20
919.714875
 10
199.938448
 20
919.738263
 10
199.872067
 20
919.762179
  0
LWPOLYLINE
  5
188
100
AcDbEntity
  8
025-DWG
  6
CONTINUOUS
100
AcDbPolyline
 90
        5
 70
   128
 43
0.0
 38
-0.421745
 10
200.277487
 20
919.496371
 10
200.112046
 20
919.542934
 10
199.956687
 20
919.617214
 10
199.816037
 20
919.716998
 10
199.776876
 20
919.751925
  0
LWPOLYLINE
  5
189
100
AcDbEntity
  8
025-DWG
  6
CONTINUOUS
100
AcDbPolyline
 90
        7
 70
   128
 43
0.0
 38
-0.421745
 10
198.214701
 20
918.652147
 10
198.455171
 20
918.626936
 10
198.661977
 20
918.611427
 10
198.817721
 20
918.607047
 10
198.926937
 20
918.613757
 10
198.95319
 20
918.618996
 10
198.972169
 20
918.625728
  0
LWPOLYLINE
  5
18A
100
AcDbEntity
  8
025-DWG
  6
CONTINUOUS
100
AcDbPolyline
 90
        3
 70
   128
 43
0.0
 38
-0.421745
 10
200.277487
 20
919.496371
 10
200.030518
 20
919.295844
 10
198.972169
 20
918.625728
  0
LINE
  5
18B
100
AcDbEntity
  8
025-DWG
  6
CONTINUOUS
100
AcDbLine
 10
198.211137
 20
920.328002
 30
-0.421745
 11
199.711895
 21
919.795447
 31
-0.421745
  0
LWPOLYLINE
  5
18C
100
AcDbEntity
  8
025-DWG
  6
CONTINUOUS
100
AcDbPolyline
 90
        4
 70
   128
 43
0.0
 38
-0.421745
 10
199.713117
 20
919.794642
 10
199.73518
 20
919.787227
 10
199.847863
 20
919.743356
 10
199.86568
 20
919.735173
  0
LWPOLYLINE
  5
18D
100
AcDbEntity
  8
025-DWG
  6
CONTINUOUS
100
AcDbPolyline
 90
        3
 70
   128
 43
0.0
 38
-0.421745
 10
198.373884
 20
920.29496
 10
199.572307
 20
919.867465
 10
199.872067
 20
919.762179
  0
LWPOLYLINE
  5
18E
100
AcDbEntity
  8
025-DWG
  6
CONTINUOUS
100
AcDbPolyline
 90
        3
 70
   128
 43
0.0
 38
-0.421745
 10
198.373884
 20
920.29496
 10
198.230345
 20
920.321582
 10
198.207693
 20
920.329231
  0
LWPOLYLINE
  5
18F
100
AcDbEntity
  8
025-DWG
  6
CONTINUOUS
100
AcDbPolyline
 90
        3
 70
   128
 43
0.0
 38
-0.421745
 10
199.872067
 20
919.762179
 10
199.729113
 20
919.789615
 10
199.711839
 20
919.795467
  0
LWPOLYLINE
  5
190
100
AcDbEntity
  8
025-DWG
  6
CONTINUOUS
100
AcDbPolyline
 90
        9
 70
   128
 43
0.0
 38
-0.421745
 10
195.848264
 20
919.854329
 10
195.845439
 20
919.681186
 10
195.861435
 20
919.513597
 10
195.895762
 20
919.356678
 10
195.947372
 20
919.215223
 10
196.014689
 20
919.093549
 10
196.095657
 20
918.995374
 10
196.187805
 20
918.923694
 10
196.288318
 20
918.880698
  0
LWPOLYLINE
  5
191
100
AcDbEntity
  8
025-DWG
  6
CONTINUOUS
100
AcDbPolyline
 90
        9
 70
   128
 43
0.0
 38
-0.421745
 10
196.288318
 20
918.880698
 10
196.12114
 20
918.926376
 10
195.964236
 20
919.000308
 10
195.82234
 20
919.100264
 10
195.699731
 20
919.223229
 10
195.600107
 20
919.365495
 10
195.526475
 20
919.522768
 10
195.481055
 20
919.690307
 10
195.465216
 20
919.863056
  0
LWPOLYLINE
  5
192
100
AcDbEntity
  8
025-DWG
  6
CONTINUOUS
100
AcDbPolyline
 90
        4
 70
   128
 43
0.0
 38
-0.421745
 10
196.288318
 20
918.880698
 10
195.796498
 20
918.546023
 10
195.59086
 20
918.40596
 10
195.593675
 20
918.407878
  0
LWPOLYLINE
  5
193
100
AcDbEntity
  8
025-DWG
  6
CONTINUOUS
100
AcDbPolyline
 90
        6
 70
   128
 43
0.0
 38
-0.421745
 10
198.153315
 20
919.607194
 10
198.12244
 20
919.591297
 10
198.066608
 20
919.58488
 10
197.990241
 20
919.588511
 10
197.891204
 20
919.602194
 10
197.774607
 20
919.625325
  0
LWPOLYLINE
  5
194
100
AcDbEntity
  8
025-DWG
  6
CONTINUOUS
100
AcDbPolyline
 90
        3
 70
   128
 43
0.0
 38
-0.421745
 10
197.560501
 20
921.270022
 10
197.54867
 20
921.268799
 10
197.546682
 20
921.268058
  0
LINE
  5
195
100
AcDbEntity
  8
025-DWG
  6
CONTINUOUS
100
AcDbLine
 10
197.774607
 20
919.625325
 30
-0.421745
 11
197.776156
 21
920.632612
 31
-0.421745
  0
LWPOLYLINE
  5
196
100
AcDbEntity
  8
025-DWG
  6
CONTINUOUS
100
AcDbPolyline
 90
        9
 70
   128
 43
0.0
 38
-0.421745
 10
195.848264
 20
919.854329
 10
195.770042
 20
919.855204
 10
195.699208
 20
919.856163
 10
195.636516
 20
919.857196
 10
195.582636
 20
919.858291
 10
195.538144
 20
919.859437
 10
195.503515
 20
919.860621
 10
195.479119
 20
919.861832
 10
195.465216
 20
919.863056
  0
LINE
  5
197
100
AcDbEntity
  8
025-DWG
  6
CONTINUOUS
100
AcDbLine
 10
195.848264
 20
919.854329
 30
-0.421745
 11
197.774607
 21
919.625325
 31
-0.421745
  0
LINE
  5
198
100
AcDbEntity
  8
025-DWG
  6
CONTINUOUS
100
AcDbLine
 10
198.154457
 20
920.350152
 30
-0.421745
 11
198.153315
 21
919.607194
 31
-0.421745
  0
LWPOLYLINE
  5
199
100
AcDbEntity
  8
025-DWG
  6
CONTINUOUS
100
AcDbPolyline
 90
        9
 70
   128
 43
0.0
 38
-0.421745
 10
198.153315
 20
919.607194
 10
198.169502
 20
919.434929
 10
198.21498
 20
919.267834
 10
198.288382
 20
919.110922
 10
198.387506
 20
918.968903
 10
198.509378
 20
918.846039
 10
198.65034
 20
918.746017
 10
198.806163
 20
918.671837
 10
198.972169
 20
918.625728
  0
LWPOLYLINE
  5
19A
100
AcDbEntity
  8
025-DWG
  6
CONTINUOUS
100
AcDbPolyline
 90
        9
 70
   128
 43
0.0
 38
-0.421745
 10
197.774607
 20
919.625325
 10
197.772281
 20
919.452723
 10
197.788628
 20
919.28562
 10
197.823152
 20
919.129082
 10
197.874805
 20
918.987855
 10
197.942023
 20
918.866222
 10
198.022766
 20
918.767871
 10
198.114587
 20
918.695784
 10
198.214701
 20
918.652147
  0
LWPOLYLINE
  5
19B
100
AcDbEntity
  8
025-DWG
  6
CONTINUOUS
100
AcDbPolyline
 90
        3
 70
   128
 43
0.0
 38
-0.421745
 10
198.214701
 20
918.652147
 10
196.643586
 20
918.837839
 10
196.288318
 20
918.880698
  0
LWPOLYLINE
  5
19C
100
AcDbEntity
  8
025-DWG
  6
CONTINUOUS
100
AcDbPolyline
 90
        9
 70
   128
 43
0.0
 38
-0.421745
 10
197.560501
 20
921.270022
 10
197.578197
 20
921.099912
 10
197.624477
 20
920.934823
 10
197.697976
 20
920.779627
 10
197.796525
 20
920.638906
 10
197.917214
 20
920.516811
 10
198.056482
 20
920.416947
 10
198.210218
 20
920.342262
 10
198.373884
 20
920.29496
  0
ARC
  5
19D
100
AcDbEntity
  8
025-DWG
  6
CONTINUOUS
100
AcDbCircle
 10
198.54668
 20
921.270022
 30
-0.421745
 40
1.0
100
AcDbArc
 50
180.112579
 51
250.184832
  0
LWPOLYLINE
  5
19E
100
AcDbEntity
  8
025-DWG
  6
CONTINUOUS
100
AcDbPolyline
 90
        3
 70
   128
 43
0.0
 38
-0.421745
 10
198.153315
 20
919.607194
 10
198.806453
 20
919.982672
 10
198.881774
 20
920.03344
  0
LWPOLYLINE
  5
19F
100
AcDbEntity
  8
025-DWG
  6
CONTINUOUS
100
AcDbPolyline
 90
        4
 70
   128
 43
0.0
 38
-0.421745
 10
197.544419
 20
929.424149
 10
197.536349
 20
929.423782
 10
197.530779
 20
929.423217
 10
197.535004
 20
929.423058
  0
LWPOLYLINE
  5
1A0
100
AcDbEntity
  8
025-DWG
  6
CONTINUOUS
100
AcDbPolyline
 90
        5
 70
   128
 43
0.0
 38
-0.421745
 10
195.857704
 20
929.419688
 10
195.630897
 20
929.421277
 10
195.498831
 20
929.423217
 10
195.481457
 20
929.423782
 10
195.474727
 20
929.424149
  0
LINE
  5
1A1
100
AcDbEntity
  8
025-DWG
  6
CONTINUOUS
100
AcDbLine
 10
195.857704
 20
929.419688
 30
-0.421745
 11
195.857732
 21
929.419688
 31
-0.421745
  0
LINE
  5
1A2
100
AcDbEntity
  8
025-DWG
  6
CONTINUOUS
100
AcDbLine
 10
195.857732
 20
929.419688
 30
-0.421745
 11
197.528288
 21
929.419688
 31
-0.421745
  0
LWPOLYLINE
  5
1A3
100
AcDbEntity
  8
025-DWG
  6
CONTINUOUS
100
AcDbPolyline
 90
        5
 70
   128
 43
0.0
 38
-0.421745
 10
203.001921
 20
924.885842
 10
203.101879
 20
925.012476
 10
203.184039
 20
925.254493
 10
203.229212
 20
925.550353
 10
203.240271
 20
925.807574
  0
LWPOLYLINE
  5
1A4
100
AcDbEntity
  8
025-DWG
  6
CONTINUOUS
100
AcDbPolyline
 90
        9
 70
   128
 43
0.0
 38
-0.421745
 10
203.001921
 20
924.885842
 10
203.023945
 20
924.722264
 10
203.072108
 20
924.563248
 10
203.145068
 20
924.413228
 10
203.24079
 20
924.27639
 10
203.356603
 20
924.156549
 10
203.489279
 20
924.057048
 10
203.635116
 20
923.980661
 10
203.790048
 20
923.92952
  0
LINE
  5
1A5
100
AcDbEntity
  8
025-DWG
  6
CONTINUOUS
100
AcDbLine
 10
203.240271
 20
925.807574
 30
-0.421745
 11
203.990479
 21
925.807574
 31
-0.421745
  0
LWPOLYLINE
  5
1A6
100
AcDbEntity
  8
025-DWG
  6
CONTINUOUS
100
AcDbPolyline
 90
        5
 70
   128
 43
0.0
 38
-0.421745
 10
203.990479
 20
925.807574
 10
203.945929
 20
925.171517
 10
203.893892
 20
924.610718
 10
203.840162
 20
924.183139
 10
203.790048
 20
923.92952
  0
LWPOLYLINE
  5
1A7
100
AcDbEntity
  8
025-DWG
  6
CONTINUOUS
100
AcDbPolyline
 90
        6
 70
   128
 43
0.0
 38
-0.421745
 10
203.240271
 20
937.15672
 10
202.109136
 20
938.230899
 10
201.053537
 20
939.250544
 10
200.07357
 20
940.210826
 10
199.171848
 20
941.104374
 10
198.927139
 20
941.348181
  0
LWPOLYLINE
  5
1A8
100
AcDbEntity
  8
025-DWG
  6
CONTINUOUS
100
AcDbPolyline
 90
        6
 70
   128
 43
0.0
 38
-0.421745
 10
203.240271
 20
937.15672
 10
203.195634
 20
937.561835
 10
203.087499
 20
937.963008
 10
202.868006
 20
938.45161
 10
202.566935
 20
938.906125
 10
202.196767
 20
939.309185
  0
LWPOLYLINE
  5
1A9
100
AcDbEntity
  8
025-DWG
  6
CONTINUOUS
100
AcDbPolyline
 90
        7
 70
   128
 43
0.0
 38
-0.421745
 10
202.015136
 20
940.563876
 10
202.693382
 20
940.024072
 10
203.279065
 20
939.336363
 10
203.655723
 20
938.669513
 10
203.907227
 20
937.912407
 10
203.969016
 20
937.539189
 10
203.990479
 20
937.15672
  0
LINE
  5
1AA
100
AcDbEntity
  8
025-DWG
  6
CONTINUOUS
100
AcDbLine
 10
203.240271
 20
937.15672
 30
-0.421745
 11
203.990479
 21
937.15672
 31
-0.421745
  0
LINE
  5
1AB
100
AcDbEntity
  8
035-DWG
  6
CONTINUOUS
100
AcDbLine
 10
193.441903
 20
945.104108
 30
-0.421745
 11
201.673919
 21
939.724247
 31
-0.421745
  0
LWPOLYLINE
  5
1AC
100
AcDbEntity
  8
035-DWG
  6
CONTINUOUS
100
AcDbPolyline
 90
        3
 70
   128
 43
0.0
 38
-0.421745
 10
198.949497
 20
941.504735
 10
198.928714
 20
941.354793
 10
198.927139
 20
941.348181
  0
LINE
  5
1AD
100
AcDbEntity
  8
035-DWG
  6
CONTINUOUS
100
AcDbLine
 10
198.927139
 20
941.348181
 30
-0.421745
 11
198.927139
 21
941.519347
 31
-0.421745
  0
LWPOLYLINE
  5
1AE
100
AcDbEntity
  8
035-DWG
  6
CONTINUOUS
100
AcDbPolyline
 90
        3
 70
   128
 43
0.0
 38
-0.421745
 10
198.927139
 20
941.348181
 10
198.928094
 20
941.359224
 10
198.929054
 20
941.518096
  0
LWPOLYLINE
  5
1AF
100
AcDbEntity
  8
025-DWG
  6
CONTINUOUS
100
AcDbPolyline
 90
        9
 70
   128
 43
0.0
 38
-0.421745
 10
201.688097
 20
939.722183
 10
201.662291
 20
939.743864
 10
201.65697
 20
939.795502
 10
201.67233
 20
939.875213
 10
201.707809
 20
939.980083
 10
201.762111
 20
940.106281
 10
201.833252
 20
940.249196
 10
201.918633
 20
940.403608
 10
202.015136
 20
940.563876
  0
LWPOLYLINE
  5
1B0
100
AcDbEntity
  8
025-DWG
  6
CONTINUOUS
100
AcDbPolyline
 90
        4
 70
   128
 43
0.0
 38
-0.421745
 10
220.170735
 20
921.889913
 10
217.71739
 20
922.192473
 10
210.325521
 20
923.110277
 10
203.790048
 20
923.92952
  0
LINE
  5
1B1
100
AcDbEntity
  8
025-DWG
  6
CONTINUOUS
100
AcDbLine
 10
203.990479
 20
925.807574
 30
-0.421745
 11
220.727764
 21
923.718078
 31
-0.421745
  0
LINE
  5
1B2
100
AcDbEntity
  8
035-DWG
  6
CONTINUOUS
100
AcDbLine
 10
195.593233
 20
918.405368
 30
-0.421745
 11
210.018325
 21
915.861835
 31
-0.421745
  0
LINE
  5
1B3
100
AcDbEntity
  8
035-DWG
  6
CONTINUOUS
100
AcDbLine
 10
214.829797
 20
967.091462
 30
-0.421745
 11
177.496563
 21
971.027813
 31
-0.421745
  0
LWPOLYLINE
  5
1B4
100
AcDbEntity
  8
025-DWG
  6
CONTINUOUS
100
AcDbPolyline
 90
        3
 70
   128
 43
0.0
 38
-0.421745
 10
164.051567
 20
970.121359
 10
192.326223
 20
966.294058
 10
220.428669
 20
962.326207
  0
LWPOLYLINE
  5
1B5
100
AcDbEntity
  8
025-DWG
  6
CONTINUOUS
100
AcDbPolyline
 90
        3
 70
   128
 43
0.0
 38
-0.421745
 10
220.727764
 20
961.27799
 10
192.331073
 20
965.283629
 10
163.758375
 20
969.146422
  0
LWPOLYLINE
  5
1B6
100
AcDbEntity
  8
035-DWG
  6
CONTINUOUS
100
AcDbPolyline
 90
        5
 70
   128
 43
0.0
 38
-0.421745
 10
177.496563
 20
971.027813
 10
176.52549
 20
971.156803
 10
175.704447
 20
971.320344
 10
175.113952
 20
971.500692
 10
174.847713
 20
971.652968
  0
LWPOLYLINE
  5
1B7
100
AcDbEntity
  8
035-DWG
  6
CONTINUOUS
100
AcDbPolyline
 90
        9
 70
   128
 43
0.0
 38
-0.421745
 10
172.069766
 20
974.560138
 10
172.154334
 20
974.546523
 10
172.237427
 20
974.525722
 10
172.318435
 20
974.497885
 10
172.396764
 20
974.463219
 10
172.471839
 20
974.421976
 10
172.543108
 20
974.37446
 10
172.61005
 20
974.321018
 10
172.67176
 20
974.262472
  0
LWPOLYLINE
  5
1B8
100
AcDbEntity
  8
035-DWG
  6
CONTINUOUS
100
AcDbPolyline
 90
       11
 70
   128
 43
0.0
 38
-0.421745
 10
175.444816
 20
971.399641
 10
175.307319
 20
971.541483
 10
174.705017
 20
972.163019
 10
174.184227
 20
972.70058
 10
173.74469
 20
973.154359
 10
173.377896
 20
973.5331
 10
173.087856
 20
973.832637
 10
172.874244
 20
974.053279
 10
172.736822
 20
974.195247
 10
172.675453
 20
974.258655
 10
172.672173
 20
974.262045
  0
LWPOLYLINE
  5
1B9
100
AcDbEntity
  8
035-DWG
  6
CONTINUOUS
100
AcDbPolyline
 90
        7
 70
   128
 43
0.0
 38
-0.421745
 10
174.847713
 20
971.652968
 10
173.91486
 20
972.61958
 10
173.166567
 20
973.395262
 10
172.603044
 20
973.979586
 10
172.232299
 20
974.364104
 10
172.054576
 20
974.548448
 10
172.064291
 20
974.538372
  0
LWPOLYLINE
  5
1BA
100
AcDbEntity
  8
025-DWG
  6
CONTINUOUS
100
AcDbPolyline
 90
        9
 70
   128
 43
0.0
 38
-0.421745
 10
168.671264
 20
961.303881
 10
168.645887
 20
961.326093
 10
168.640883
 20
961.378102
 10
168.656434
 20
961.458017
 10
168.691975
 20
961.562934
 10
168.746214
 20
961.689039
 10
168.817178
 20
961.831747
 10
168.902289
 20
961.985872
 10
168.998453
 20
962.145811
  0
LINE
  5
1BB
100
AcDbEntity
  8
025-DWG
  6
CONTINUOUS
100
AcDbLine
 10
163.758375
 20
963.281722
 30
-0.421745
 11
167.198049
 21
962.821531
 31
-0.421745
  0
LINE
  5
1BC
100
AcDbEntity
  8
035-DWG
  6
CONTINUOUS
100
AcDbLine
 10
167.320803
 20
961.848337
 30
-0.421745
 11
163.881069
 21
962.307851
 31
-0.421745
  0
LWPOLYLINE
  5
1BD
100
AcDbEntity
  8
025-DWG
  6
CONTINUOUS
100
AcDbPolyline
 90
        9
 70
   128
 43
0.0
 38
-0.421745
 10
158.04327
 20
975.784851
 10
158.041147
 20
975.787179
 10
158.149646
 20
975.668219
 10
158.454291
 20
975.334203
 10
158.952987
 20
974.787426
 10
159.643021
 20
974.030862
 10
160.537614
 20
973.050013
 10
161.623139
 20
971.859818
 10
162.893957
 20
970.466457
  0
LINE
  5
1BE
100
AcDbEntity
  8
035-DWG
  6
CONTINUOUS
100
AcDbLine
 10
156.953257
 20
974.788668
 30
-0.421745
 11
156.953257
 21
969.047973
 31
-0.421745
  0
LWPOLYLINE
  5
1BF
100
AcDbEntity
  8
025-DWG
  6
CONTINUOUS
100
AcDbPolyline
 90
        8
 70
   128
 43
0.0
 38
-0.421745
 10
161.828877
 20
969.490511
 10
160.565218
 20
970.864503
 10
159.48338
 20
972.040791
 10
158.588457
 20
973.013843
 10
157.88554
 20
973.778123
 10
157.366488
 20
974.342486
 10
157.055567
 20
974.680549
 10
156.956096
 20
974.788702
  0
LWPOLYLINE
  5
1C0
100
AcDbEntity
  8
035-DWG
  6
CONTINUOUS
100
AcDbPolyline
 90
        9
 70
   128
 43
0.0
 38
-0.421745
 10
157.208373
 20
968.388138
 10
157.151266
 20
968.457996
 10
157.100642
 20
968.532792
 10
157.056973
 20
968.611851
 10
157.020615
 20
968.694527
 10
156.991865
 20
968.780147
 10
156.970958
 20
968.868011
 10
156.958063
 20
968.957404
 10
156.953287
 20
969.047595
  0
LWPOLYLINE
  5
1C1
100
AcDbEntity
  8
025-DWG
  6
CONTINUOUS
100
AcDbPolyline
 90
        9
 70
   128
 43
0.0
 38
-0.421745
 10
164.051567
 20
970.121359
 10
164.011079
 20
970.075413
 10
163.969248
 20
970.001633
 10
163.927328
 20
969.902228
 10
163.886575
 20
969.780178
 10
163.84821
 20
969.63914
 10
163.813382
 20
969.483338
 10
163.783135
 20
969.317442
 10
163.758375
 20
969.146422
  0
LWPOLYLINE
  5
1C2
100
AcDbEntity
  8
025-DWG
  6
CONTINUOUS
100
AcDbPolyline
 90
        9
 70
   128
 43
0.0
 38
-0.421745
 10
162.893957
 20
970.466457
 10
162.696439
 20
970.455159
 10
162.50347
 20
970.404719
 10
162.322882
 20
970.317182
 10
162.162002
 20
970.196102
 10
162.027358
 20
970.04639
 10
161.924414
 20
969.874122
 10
161.857347
 20
969.686288
 10
161.828877
 20
969.490511
  0
LWPOLYLINE
  5
1C3
100
AcDbEntity
  8
025-DWG
  6
CONTINUOUS
100
AcDbPolyline
 90
        5
 70
   128
 43
0.0
 38
-0.421745
 10
162.893957
 20
970.466457
 10
163.083031
 20
970.350199
 10
163.425352
 20
970.238754
 10
163.879918
 20
970.146379
 10
164.051567
 20
970.121359
  0
LWPOLYLINE
  5
1C4
100
AcDbEntity
  8
025-DWG
  6
CONTINUOUS
100
AcDbPolyline
 90
        5
 70
   128
 43
0.0
 38
-0.421745
 10
163.758375
 20
969.146422
 10
162.976618
 20
969.226692
 10
162.343933
 20
969.329003
 10
161.927548
 20
969.442051
 10
161.828877
 20
969.490511
  0
ARC
  5
1C5
100
AcDbEntity
  8
035-DWG
  6
CONTINUOUS
100
AcDbCircle
 10
157.953257
 20
974.791789
 30
-0.421745
 40
1.0
100
AcDbArc
 50
84.850774
 51
180.171784
  0
LWPOLYLINE
  5
1C6
100
AcDbEntity
  8
025-DWG
  6
CONTINUOUS
100
AcDbPolyline
 90
        9
 70
   128
 43
0.0
 38
-0.421745
 10
163.758375
 20
963.281722
 10
163.735759
 20
963.065313
 10
163.724256
 20
962.859337
 10
163.724421
 20
962.673725
 10
163.736247
 20
962.517426
 10
163.759162
 20
962.397975
 10
163.792062
 20
962.321131
 10
163.833362
 20
962.290599
 10
163.836829
 20
962.290226
  0
LWPOLYLINE
  5
1C7
100
AcDbEntity
  8
025-DWG
  6
CONTINUOUS
100
AcDbPolyline
 90
        5
 70
   128
 43
0.0
 38
-0.421745
 10
161.828877
 20
963.632025
 10
161.838379
 20
963.446726
 10
161.883187
 20
963.268171
 10
161.961669
 20
963.102856
 10
162.060572
 20
962.968329
  0
LINE
  5
1C8
100
AcDbEntity
  8
025-DWG
  6
CONTINUOUS
100
AcDbLine
 10
163.836829
 20
962.290226
 30
-0.421745
 11
163.881069
 21
962.307851
 31
-0.421745
  0
LINE
  5
1C9
100
AcDbEntity
  8
035-DWG
  6
CONTINUOUS
100
AcDbLine
 10
162.037278
 20
962.994361
 30
-0.421745
 11
162.06677
 21
962.961399
 31
-0.421745
  0
LWPOLYLINE
  5
1CA
100
AcDbEntity
  8
035-DWG
  6
CONTINUOUS
100
AcDbPolyline
 90
        8
 70
   128
 43
0.0
 38
-0.421745
 10
162.064643
 20
962.971418
 10
162.105233
 20
962.92074
 10
162.292374
 20
962.764502
 10
162.513561
 20
962.636058
 10
162.816783
 20
962.513091
 10
163.212572
 20
962.402126
 10
163.622239
 20
962.321845
 10
163.837328
 20
962.293618
  0
LWPOLYLINE
  5
1CB
100
AcDbEntity
  8
025-DWG
  6
CONTINUOUS
100
AcDbPolyline
 90
        5
 70
   128
 43
0.0
 38
-0.421745
 10
161.828877
 20
963.632025
 10
162.136694
 20
963.51558
 10
162.690751
 20
963.404208
 10
163.427808
 20
963.311314
 10
163.758375
 20
963.281722
  0
LWPOLYLINE
  5
1CC
100
AcDbEntity
  8
035-DWG
  6
CONTINUOUS
100
AcDbPolyline
 90
       14
 70
   128
 43
0.0
 38
-0.421745
 10
157.208432
 20
968.388072
 10
157.21834
 20
968.377012
 10
157.292573
 20
968.294143
 10
157.439308
 20
968.130327
 10
157.658551
 20
967.885543
 10
157.950331
 20
967.559746
 10
158.314808
 20
967.152747
 10
158.752243
 20
966.664238
 10
159.26311
 20
966.093679
 10
159.847214
 20
965.441262
 10
160.501316
 20
964.710569
 10
161.232128
 20
963.894067
 10
162.038306
 20
962.993212
 10
162.067071
 20
962.961063
  0
LWPOLYLINE
  5
1CD
100
AcDbEntity
  8
025-DWG
  6
CONTINUOUS
100
AcDbPolyline
 90
        8
 70
   128
 43
0.0
 38
-0.421745
 10
156.959913
 20
969.047941
 10
157.043718
 20
968.954758
 10
157.336899
 20
968.628789
 10
157.831376
 20
968.078966
 10
158.524268
 20
967.308425
 10
159.429783
 20
966.301282
 10
160.533364
 20
965.07359
 10
161.828877
 20
963.632025
  0
LINE
  5
1CE
100
AcDbEntity
  8
025-DWG
  6
CONTINUOUS
100
AcDbLine
 10
163.758375
 20
969.146422
 30
-0.421745
 11
163.758375
 21
963.281722
 31
-0.421745
  0
LINE
  5
1CF
100
AcDbEntity
  8
025-DWG
  6
CONTINUOUS
100
AcDbLine
 10
161.828877
 20
963.632025
 30
-0.421745
 11
161.828877
 21
969.490511
 31
-0.421745
  0
LWPOLYLINE
  5
1D0
100
AcDbEntity
  8
025-DWG
  6
CONTINUOUS
100
AcDbPolyline
 90
        3
 70
   128
 43
0.0
 38
-0.421745
 10
167.320803
 20
961.848337
 10
167.272928
 20
961.830417
 10
167.273062
 20
961.830399
  0
LWPOLYLINE
  5
1D1
100
AcDbEntity
  8
025-DWG
  6
CONTINUOUS
100
AcDbPolyline
 90
        8
 70
   128
 43
0.0
 38
-0.421745
 10
167.273062
 20
961.830399
 10
167.231489
 20
961.860451
 10
167.198491
 20
961.936984
 10
167.175531
 20
962.056315
 10
167.163718
 20
962.212669
 10
167.163625
 20
962.398481
 10
167.175257
 20
962.604762
 10
167.198049
 20
962.821531
  0
LINE
  5
1D2
100
AcDbEntity
  8
035-DWG
  6
CONTINUOUS
100
AcDbLine
 10
172.06626
 20
974.560881
 30
-0.421745
 11
158.04352
 21
975.787712
 31
-0.421745
  0
LWPOLYLINE
  5
1D3
100
AcDbEntity
  8
025-DWG
  6
CONTINUOUS
100
AcDbPolyline
 90
        5
 70
   128
 43
0.0
 38
-0.421745
 10
167.198049
 20
962.821531
 10
167.913805
 20
962.660948
 10
168.612958
 20
962.371006
 10
168.808188
 20
962.263409
 10
168.998453
 20
962.145811
  0
LWPOLYLINE
  5
1D4
100
AcDbEntity
  8
035-DWG
  6
CONTINUOUS
100
AcDbPolyline
 90
        5
 70
   128
 43
0.0
 38
-0.421745
 10
167.270937
 20
961.817928
 10
167.612313
 20
961.765719
 10
168.170566
 20
961.574589
 10
168.703918
 20
961.27905
 10
168.72622
 20
961.26302
  0
LWPOLYLINE
  5
1D5
100
AcDbEntity
  8
035-DWG
  6
CONTINUOUS
100
AcDbPolyline
 90
        5
 70
   128
 43
0.0
 38
-0.421745
 10
167.272065
 20
961.817778
 10
167.613511
 20
961.765555
 10
168.171747
 20
961.574467
 10
168.704867
 20
961.279021
 10
168.727243
 20
961.262936
  0
ARC
  5
1D6
100
AcDbEntity
  8
035-DWG
100
AcDbCircle
 10
210.6
 20
972.855427
 30
-0.421745
 40
2.5
100
AcDbArc
 50
270.0
 51
90.0
  0
LINE
  5
1D7
100
AcDbEntity
  8
035-DWG
100
AcDbLine
 10
210.1
 20
967.590163
 30
-0.421745
 11
210.1
 21
970.355427
 31
-0.421745
  0
LINE
  5
1D8
100
AcDbEntity
  8
035-DWG
100
AcDbLine
 10
210.1
 20
975.355427
 30
-0.421745
 11
210.1
 21
994.669091
 31
-0.421745
  0
LINE
  5
1D9
100
AcDbEntity
  8
035-DWG
100
AcDbLine
 10
210.6
 20
975.355427
 30
-0.421745
 11
210.1
 21
975.355427
 31
-0.421745
  0
LINE
  5
1DA
100
AcDbEntity
  8
035-DWG
100
AcDbLine
 10
210.6
 20
970.355427
 30
-0.421745
 11
210.1
 21
970.355427
 31
-0.421745
  0
LWPOLYLINE
  5
1DB
100
AcDbEntity
  8
035-DWG
  6
CONTINUOUS
100
AcDbPolyline
 90
        6
 70
   128
 43
0.0
 38
-0.421745
 10
220.727764
 20
961.27799
 10
220.710872
 20
961.574677
 10
220.663548
 20
961.845829
 10
220.582239
 20
962.095823
 10
220.46486
 20
962.290685
 10
220.428669
 20
962.326207
  0
LWPOLYLINE
  5
1DC
100
AcDbEntity
  8
035-DWG
  6
CONTINUOUS
100
AcDbPolyline
 90
        5
 70
   128
 43
0.0
 38
-0.421745
 10
220.428669
 20
962.326207
 10
218.849136
 20
963.664807
 10
217.387907
 20
964.90721
 10
216.045829
 20
966.051697
 10
214.829797
 20
967.091462
  0
LINE
  5
1DD
100
AcDbEntity
  8
035-DWG
100
AcDbLine
 10
199.95
 20
994.669091
 30
-0.421745
 11
199.95
 21
1000.669091
 31
-0.421745
  0
ARC
  5
1DE
100
AcDbEntity
  8
035-DWG
100
AcDbCircle
 10
224.4
 20
852.369091
 30
-0.421745
 40
2.0
100
AcDbArc
 50
23.578178
 51
90.0
  0
LINE
  5
1DF
100
AcDbEntity
  8
025-DWG
100
AcDbLine
 10
359.6
 20
1041.669091
 30
-0.421745
 11
426.2
 21
1041.669091
 31
-0.421745
  0
LINE
  5
1E0
100
AcDbEntity
  8
025-DWG
100
AcDbLine
 10
361.765064
 20
1045.419091
 30
-0.421745
 11
424.034936
 21
1045.419091
 31
-0.421745
  0
LINE
  5
1E1
100
AcDbEntity
  8
035-DWG
100
AcDbLine
 10
359.311325
 20
1049.669091
 30
-0.421745
 11
426.488675
 21
1049.669091
 31
-0.421745
  0
LINE
  5
1E2
100
AcDbEntity
  8
035-DWG
100
AcDbLine
 10
273.725483
 20
1041.669091
 30
-0.421745
 11
359.6
 21
1041.669091
 31
-0.421745
  0
LINE
  5
1E3
100
AcDbEntity
  8
035-DWG
100
AcDbLine
 10
226.968165
 20
1034.007245
 30
-0.421745
 11
235.713419
 21
1049.74003
 31
-0.421745
  0
LINE
  5
1E4
100
AcDbEntity
  8
035-DWG
100
AcDbLine
 10
235.713419
 20
1049.74003
 30
-0.421745
 11
265.003022
 21
1033.459059
 31
-0.421745
  0
LINE
  5
1E5
100
AcDbEntity
  8
035-DWG
100
AcDbLine
 10
252.002346
 20
1020.192035
 30
-0.421745
 11
265.491553
 21
1033.187503
 31
-0.421745
  0
LINE
  5
1E6
100
AcDbEntity
  8
035-DWG
100
AcDbLine
 10
264.267465
 20
1033.867927
 30
-0.421745
 11
270.897056
 21
1040.497518
 31
-0.421745
  0
ARC
  5
1E7
100
AcDbEntity
  8
035-DWG
100
AcDbCircle
 10
265.974717
 20
1035.207146
 30
-0.421745
 40
2.0
100
AcDbArc
 50
240.931989
 51
272.159748
  0
POLYLINE
  5
1E8
100
AcDbEntity
  8
035-DWG
100
AcDb2dPolyline
 66
     1
 10
0.0
 20
0.0
 30
-0.421745
 70
     2
  0
VERTEX
  5
1E9
100
AcDbEntity
  8
035-DWG
100
AcDbVertex
100
AcDb2dVertex
 10
260.817444
 20
1020.463341
 30
-0.421745
 42
0.024111
  0
VERTEX
  5
1EA
100
AcDbEntity
  8
035-DWG
100
AcDbVertex
100
AcDb2dVertex
 10
263.311064
 20
1023.291882
 30
-0.421745
 42
0.024111
 70
     1
  0
VERTEX
  5
1EB
100
AcDbEntity
  8
035-DWG
100
AcDbVertex
100
AcDb2dVertex
 10
265.520775
 20
1026.347363
 30
-0.421745
 42
0.025148
  0
VERTEX
  5
1EC
100
AcDbEntity
  8
035-DWG
100
AcDbVertex
100
AcDb2dVertex
 10
267.500815
 20
1029.74522
 30
-0.421745
 42
0.025148
 70
     1
  0
VERTEX
  5
1ED
100
AcDbEntity
  8
035-DWG
100
AcDbVertex
100
AcDb2dVertex
 10
269.129701
 20
1033.324707
 30
-0.421745
  0
SEQEND
  5
1EE
100
AcDbEntity
  8
035-DWG
  0
POLYLINE
  5
1EF
100
AcDbEntity
  8
035-DWG
100
AcDb2dPolyline
 66
     1
 10
0.0
 20
0.0
 30
-0.421745
 70
     2
  0
VERTEX
  5
1F0
100
AcDbEntity
  8
035-DWG
100
AcDbVertex
100
AcDb2dVertex
 10
261.600126
 20
1019.864669
 30
-0.421745
 42
0.024111
  0
VERTEX
  5
1F1
100
AcDbEntity
  8
035-DWG
100
AcDbVertex
100
AcDb2dVertex
 10
264.093746
 20
1022.69321
 30
-0.421745
 42
0.024111
 70
     1
  0
VERTEX
  5
1F2
100
AcDbEntity
  8
035-DWG
100
AcDbVertex
100
AcDb2dVertex
 10
266.303457
 20
1025.748691
 30
-0.421745
 42
0.025148
  0
VERTEX
  5
1F3
100
AcDbEntity
  8
035-DWG
100
AcDbVertex
100
AcDb2dVertex
 10
268.283497
 20
1029.146549
 30
-0.421745
 42
0.025148
 70
     1
  0
VERTEX
  5
1F4
100
AcDbEntity
  8
035-DWG
100
AcDbVertex
100
AcDb2dVertex
 10
269.912383
 20
1032.726035
 30
-0.421745
  0
SEQEND
  5
1F5
100
AcDbEntity
  8
035-DWG
  0
LINE
  5
1F6
100
AcDbEntity
  8
035-DWG
100
AcDbLine
 10
253.553154
 20
1019.561197
 30
-0.421745
 11
261.600126
 21
1019.864669
 31
-0.421745
  0
LINE
  5
1F7
100
AcDbEntity
  8
035-DWG
100
AcDbLine
 10
252.494839
 20
1020.149474
 30
-0.421745
 11
260.817444
 21
1020.463341
 31
-0.421745
  0
LINE
  5
1F8
100
AcDbEntity
  8
035-DWG
100
AcDbLine
 10
251.447773
 20
1020.399966
 30
-0.421745
 11
252.506088
 21
1019.811689
 31
-0.421745
  0
ARC
  5
1F9
100
AcDbEntity
  8
035-DWG
100
AcDbCircle
 10
252.419468
 20
1022.148053
 30
-0.421745
 40
2.0
100
AcDbArc
 50
240.931989
 51
272.159748
  0
ARC
  5
1FA
100
AcDbEntity
  8
035-DWG
100
AcDbCircle
 10
253.477783
 20
1021.559776
 30
-0.421745
 40
2.0
100
AcDbArc
 50
240.931989
 51
272.159748
  0
LINE
  5
1FB
100
AcDbEntity
  8
035-DWG
100
AcDbLine
 10
260.817444
 20
1020.463341
 30
-0.421745
 11
261.600126
 21
1019.864669
 31
-0.421745
  0
LINE
  5
1FC
100
AcDbEntity
  8
035-DWG
100
AcDbLine
 10
226.968165
 20
1034.007245
 30
-0.421745
 11
251.447773
 21
1020.399966
 31
-0.421745
  0
LINE
  5
1FD
100
AcDbEntity
  8
035-DWG
100
AcDbLine
 10
233.068629
 20
1002.669091
 30
-0.421745
 11
251.031111
 21
1020.631573
 31
-0.421745
  0
LINE
  5
1FE
100
AcDbEntity
  8
035-DWG
100
AcDbLine
 10
269.129701
 20
1033.324707
 30
-0.421745
 11
269.912383
 21
1032.726035
 31
-0.421745
  0
LINE
  5
1FF
100
AcDbEntity
  8
035-DWG
100
AcDbLine
 10
266.050089
 20
1033.208567
 30
-0.421745
 11
269.129701
 21
1033.324707
 31
-0.421745
  0
ARC
  5
200
100
AcDbEntity
  8
035-DWG
100
AcDbCircle
 10
273.725483
 20
1037.669091
 30
-0.421745
 40
4.0
100
AcDbArc
 50
90.0
 51
135.0
  0
LINE
  5
201
100
AcDbEntity
  8
035-DWG
100
AcDbLine
 10
361.765064
 20
1045.419091
 30
-0.421745
 11
359.311325
 21
1049.669091
 31
-0.421745
  0
ARC
  5
202
100
AcDbEntity
  8
035-DWG
100
AcDbCircle
 10
359.6
 20
1044.169091
 30
-0.421745
 40
2.5
100
AcDbArc
 50
270.0
 51
30.0
  0
LINE
  5
203
100
AcDbEntity
  8
035-DWG
100
AcDbLine
 10
512.074517
 20
1041.669091
 30
-0.421745
 11
426.2
 21
1041.669091
 31
-0.421745
  0
LINE
  5
204
100
AcDbEntity
  8
035-DWG
100
AcDbLine
 10
424.034936
 20
1045.419091
 30
-0.421745
 11
426.488675
 21
1049.669091
 31
-0.421745
  0
ARC
  5
205
100
AcDbEntity
  8
035-DWG
100
AcDbCircle
 10
426.2
 20
1044.169091
 30
-0.421745
 40
2.5
100
AcDbArc
 50
150.0
 51
270.0
  0
LINE
  5
206
100
AcDbEntity
  8
035-DWG
100
AcDbLine
 10
550.086581
 20
1049.74003
 30
-0.421745
 11
520.796978
 21
1033.459059
 31
-0.421745
  0
LINE
  5
207
100
AcDbEntity
  8
035-DWG
100
AcDbLine
 10
521.532535
 20
1033.867927
 30
-0.421745
 11
514.902944
 21
1040.497518
 31
-0.421745
  0
ARC
  5
208
100
AcDbEntity
  8
035-DWG
100
AcDbCircle
 10
512.074517
 20
1037.669091
 30
-0.421745
 40
4.0
100
AcDbArc
 50
45.0
 51
90.0
  0
LINE
  5
209
100
AcDbEntity
  8
035-DWG
100
AcDbLine
 10
552.731371
 20
1002.669091
 30
-0.421745
 11
534.768889
 21
1020.631573
 31
-0.421745
  0
LINE
  5
20A
100
AcDbEntity
  8
035-DWG
100
AcDbLine
 10
524.982556
 20
1020.463341
 30
-0.421745
 11
524.199874
 21
1019.864669
 31
-0.421745
  0
ARC
  5
20B
100
AcDbEntity
  8
035-DWG
100
AcDbCircle
 10
519.825283
 20
1035.207146
 30
-0.421745
 40
2.0
100
AcDbArc
 50
267.840252
 51
299.068011
  0
ARC
  5
20C
100
AcDbEntity
  8
035-DWG
100
AcDbCircle
 10
532.322217
 20
1021.559776
 30
-0.421745
 40
2.0
100
AcDbArc
 50
267.840252
 51
299.068011
  0
ARC
  5
20D
100
AcDbEntity
  8
035-DWG
100
AcDbCircle
 10
533.380532
 20
1022.148053
 30
-0.421745
 40
2.0
100
AcDbArc
 50
267.840252
 51
299.068011
  0
LINE
  5
20E
100
AcDbEntity
  8
035-DWG
100
AcDbLine
 10
534.352227
 20
1020.399966
 30
-0.421745
 11
533.293912
 21
1019.811689
 31
-0.421745
  0
LINE
  5
20F
100
AcDbEntity
  8
035-DWG
100
AcDbLine
 10
533.305161
 20
1020.149474
 30
-0.421745
 11
524.982556
 21
1020.463341
 31
-0.421745
  0
LINE
  5
210
100
AcDbEntity
  8
035-DWG
100
AcDbLine
 10
532.246846
 20
1019.561197
 30
-0.421745
 11
524.199874
 21
1019.864669
 31
-0.421745
  0
LINE
  5
211
100
AcDbEntity
  8
035-DWG
100
AcDbLine
 10
533.797654
 20
1020.192035
 30
-0.421745
 11
520.308447
 21
1033.187503
 31
-0.421745
  0
LINE
  5
212
100
AcDbEntity
  8
035-DWG
100
AcDbLine
 10
516.670299
 20
1033.324707
 30
-0.421745
 11
515.887617
 21
1032.726035
 31
-0.421745
  0
LINE
  5
213
100
AcDbEntity
  8
035-DWG
100
AcDbLine
 10
519.749911
 20
1033.208567
 30
-0.421745
 11
516.670299
 21
1033.324707
 31
-0.421745
  0
POLYLINE
  5
214
100
AcDbEntity
  8
035-DWG
100
AcDb2dPolyline
 66
     1
 10
0.0
 20
0.0
 30
-0.421745
 70
     2
  0
VERTEX
  5
215
100
AcDbEntity
  8
035-DWG
100
AcDbVertex
100
AcDb2dVertex
 10
524.199874
 20
1019.864669
 30
-0.421745
 42
-0.024111
  0
VERTEX
  5
216
100
AcDbEntity
  8
035-DWG
100
AcDbVertex
100
AcDb2dVertex
 10
521.706254
 20
1022.69321
 30
-0.421745
 42
-0.024111
 70
     1
  0
VERTEX
  5
217
100
AcDbEntity
  8
035-DWG
100
AcDbVertex
100
AcDb2dVertex
 10
519.496543
 20
1025.748691
 30
-0.421745
 42
-0.025148
  0
VERTEX
  5
218
100
AcDbEntity
  8
035-DWG
100
AcDbVertex
100
AcDb2dVertex
 10
517.516503
 20
1029.146549
 30
-0.421745
 42
-0.025148
 70
     1
  0
VERTEX
  5
219
100
AcDbEntity
  8
035-DWG
100
AcDbVertex
100
AcDb2dVertex
 10
515.887617
 20
1032.726035
 30
-0.421745
  0
SEQEND
  5
21A
100
AcDbEntity
  8
035-DWG
  0
POLYLINE
  5
21B
100
AcDbEntity
  8
035-DWG
100
AcDb2dPolyline
 66
     1
 10
0.0
 20
0.0
 30
-0.421745
 70
     2
  0
VERTEX
  5
21C
100
AcDbEntity
  8
035-DWG
100
AcDbVertex
100
AcDb2dVertex
 10
524.982556
 20
1020.463341
 30
-0.421745
 42
-0.024111
  0
VERTEX
  5
21D
100
AcDbEntity
  8
035-DWG
100
AcDbVertex
100
AcDb2dVertex
 10
522.488936
 20
1023.291882
 30
-0.421745
 42
-0.024111
 70
     1
  0
VERTEX
  5
21E
100
AcDbEntity
  8
035-DWG
100
AcDbVertex
100
AcDb2dVertex
 10
520.279225
 20
1026.347363
 30
-0.421745
 42
-0.025148
  0
VERTEX
  5
21F
100
AcDbEntity
  8
035-DWG
100
AcDbVertex
100
AcDb2dVertex
 10
518.299185
 20
1029.74522
 30
-0.421745
 42
-0.025148
 70
     1
  0
VERTEX
  5
220
100
AcDbEntity
  8
035-DWG
100
AcDbVertex
100
AcDb2dVertex
 10
516.670299
 20
1033.324707
 30
-0.421745
  0
SEQEND
  5
221
100
AcDbEntity
  8
035-DWG
  0
LINE
  5
222
100
AcDbEntity
  8
035-DWG
100
AcDbLine
 10
578.65
 20
742.021072
 30
-0.421745
 11
578.65
 21
838.169091
 31
-0.421745
  0
LINE
  5
223
100
AcDbEntity
  8
025-DWG
  6
CONTINUOUS
100
AcDbLine
 10
619.751547
 20
736.57672
 30
-0.421745
 11
586.734864
 21
714.994784
 31
-0.421745
  0
LINE
  5
224
100
AcDbEntity
  8
035-DWG
  6
CONTINUOUS
100
AcDbLine
 10
568.022236
 20
698.148987
 30
-0.421745
 11
568.022236
 21
735.708899
 31
-0.421745
  0
LINE
  5
225
100
AcDbEntity
  8
035-DWG
  6
CONTINUOUS
100
AcDbLine
 10
595.301738
 20
719.542016
 30
-0.421745
 11
620.078736
 21
735.73479
 31
-0.421745
  0
LINE
  5
226
100
AcDbEntity
  8
035-DWG
  6
CONTINUOUS
100
AcDbLine
 10
593.156767
 20
692.836277
 30
-0.421745
 11
578.731675
 21
690.292744
 31
-0.421745
  0
LWPOLYLINE
  5
227
100
AcDbEntity
  8
025-DWG
  6
CONTINUOUS
100
AcDbPolyline
 90
        4
 70
   128
 43
0.0
 38
-0.421745
 10
568.579265
 20
696.320822
 10
571.03261
 20
696.623382
 10
578.424479
 20
697.541186
 10
584.959952
 20
698.360429
  0
LINE
  5
228
100
AcDbEntity
  8
025-DWG
  6
CONTINUOUS
100
AcDbLine
 10
584.759521
 20
700.238483
 30
-0.421745
 11
568.022236
 21
698.148987
 31
-0.421745
  0
LWPOLYLINE
  5
229
100
AcDbEntity
  8
035-DWG
  6
CONTINUOUS
100
AcDbPolyline
 90
        5
 70
   128
 43
0.0
 38
-0.421745
 10
568.579265
 20
696.320822
 10
568.341728
 20
696.582725
 10
568.146344
 20
697.084213
 10
568.043928
 20
697.682909
 10
568.022236
 20
698.148987
  0
LWPOLYLINE
  5
22A
100
AcDbEntity
  8
035-DWG
  6
CONTINUOUS
100
AcDbPolyline
 90
       10
 70
   128
 43
0.0
 38
-0.421745
 10
578.729696
 20
690.303969
 10
578.65
 20
690.352239
 10
578.313482
 20
690.555349
 10
577.732925
 20
690.905205
 10
576.88034
 20
691.417995
 10
575.772389
 20
692.081823
 10
574.414054
 20
692.891551
 10
572.810317
 20
693.84204
 10
570.829542
 20
695.007845
 10
568.579265
 20
696.320822
  0
LWPOLYLINE
  5
22B
100
AcDbEntity
  8
035-DWG
  6
CONTINUOUS
100
AcDbPolyline
 90
        3
 70
   128
 43
0.0
 38
-0.421745
 10
589.822861
 20
715.779089
 10
589.821906
 20
715.790133
 10
589.820946
 20
715.949004
  0
LINE
  5
22C
100
AcDbEntity
  8
035-DWG
  6
CONTINUOUS
100
AcDbLine
 10
589.822861
 20
715.779089
 30
-0.421745
 11
589.822861
 21
715.950256
 31
-0.421745
  0
LWPOLYLINE
  5
22D
100
AcDbEntity
  8
035-DWG
  6
CONTINUOUS
100
AcDbPolyline
 90
        3
 70
   128
 43
0.0
 38
-0.421745
 10
589.800503
 20
715.935644
 10
589.821286
 20
715.785702
 10
589.822861
 20
715.779089
  0
LINE
  5
22E
100
AcDbEntity
  8
035-DWG
  6
CONTINUOUS
100
AcDbLine
 10
595.308097
 20
719.535017
 30
-0.421745
 11
587.076081
 21
714.155156
 31
-0.421745
  0
ARC
  5
22F
100
AcDbEntity
  8
035-DWG
  6
CONTINUOUS
100
AcDbCircle
 10
592.985694
 20
693.821539
 30
-0.421745
 40
1.0
100
AcDbArc
 50
279.844267
 51
0.197663
  0
LINE
  5
230
100
AcDbEntity
  8
035-DWG
  6
CONTINUOUS
100
AcDbLine
 10
593.985694
 20
718.670788
 30
-0.421745
 11
593.985694
 21
693.825012
 31
-0.421745
  0
LINE
  5
231
100
AcDbEntity
  8
025-DWG
  6
CONTINUOUS
100
AcDbLine
 10
585.509729
 20
700.238483
 30
-0.421745
 11
585.509729
 21
711.587629
 31
-0.421745
  0
LINE
  5
232
100
AcDbEntity
  8
025-DWG
  6
CONTINUOUS
100
AcDbLine
 10
584.759521
 20
711.587629
 30
-0.421745
 11
584.759521
 21
700.238483
 31
-0.421745
  0
LWPOLYLINE
  5
233
100
AcDbEntity
  8
025-DWG
  6
CONTINUOUS
100
AcDbPolyline
 90
        5
 70
   128
 43
0.0
 38
-0.421745
 10
585.748079
 20
699.316751
 10
585.648121
 20
699.443384
 10
585.565961
 20
699.685402
 10
585.520788
 20
699.981262
 10
585.509729
 20
700.238483
  0
LWPOLYLINE
  5
234
100
AcDbEntity
  8
025-DWG
  6
CONTINUOUS
100
AcDbPolyline
 90
        9
 70
   128
 43
0.0
 38
-0.421745
 10
585.748079
 20
699.316751
 10
585.726055
 20
699.153173
 10
585.677892
 20
698.994156
 10
585.604932
 20
698.844137
 10
585.50921
 20
698.707299
 10
585.393397
 20
698.587458
 10
585.260721
 20
698.487957
 10
585.114884
 20
698.41157
 10
584.959952
 20
698.360429
  0
LINE
  5
235
100
AcDbEntity
  8
025-DWG
  6
CONTINUOUS
100
AcDbLine
 10
585.509729
 20
700.238483
 30
-0.421745
 11
584.759521
 21
700.238483
 31
-0.421745
  0
LWPOLYLINE
  5
236
100
AcDbEntity
  8
025-DWG
  6
CONTINUOUS
100
AcDbPolyline
 90
        5
 70
   128
 43
0.0
 38
-0.421745
 10
584.759521
 20
700.238483
 10
584.804071
 20
699.602426
 10
584.856108
 20
699.041627
 10
584.909838
 20
698.614048
 10
584.959952
 20
698.360429
  0
LWPOLYLINE
  5
237
100
AcDbEntity
  8
025-DWG
  6
CONTINUOUS
100
AcDbPolyline
 90
        6
 70
   128
 43
0.0
 38
-0.421745
 10
585.509729
 20
711.587629
 10
586.640864
 20
712.661808
 10
587.696463
 20
713.681453
 10
588.67643
 20
714.641735
 10
589.578152
 20
715.535282
 10
589.822861
 20
715.779089
  0
LWPOLYLINE
  5
238
100
AcDbEntity
  8
025-DWG
  6
CONTINUOUS
100
AcDbPolyline
 90
        6
 70
   128
 43
0.0
 38
-0.421745
 10
585.509729
 20
711.587629
 10
585.554366
 20
711.992744
 10
585.662501
 20
712.393917
 10
585.881994
 20
712.882519
 10
586.183065
 20
713.337034
 10
586.553233
 20
713.740094
  0
LWPOLYLINE
  5
239
100
AcDbEntity
  8
025-DWG
  6
CONTINUOUS
100
AcDbPolyline
 90
        7
 70
   128
 43
0.0
 38
-0.421745
 10
586.734864
 20
714.994784
 10
586.056618
 20
714.454981
 10
585.470935
 20
713.767272
 10
585.094277
 20
713.100422
 10
584.842773
 20
712.343316
 10
584.780984
 20
711.970098
 10
584.759521
 20
711.587629
  0
LINE
  5
23A
100
AcDbEntity
  8
025-DWG
  6
CONTINUOUS
100
AcDbLine
 10
585.509729
 20
711.587629
 30
-0.421745
 11
584.759521
 21
711.587629
 31
-0.421745
  0
LWPOLYLINE
  5
23B
100
AcDbEntity
  8
025-DWG
  6
CONTINUOUS
100
AcDbPolyline
 90
        9
 70
   128
 43
0.0
 38
-0.421745
 10
587.061903
 20
714.153092
 10
587.087709
 20
714.174772
 10
587.09303
 20
714.226411
 10
587.07767
 20
714.306122
 10
587.042191
 20
714.410991
 10
586.987889
 20
714.537189
 10
586.916748
 20
714.680105
 10
586.831367
 20
714.834517
 10
586.734864
 20
714.994784
  0
LWPOLYLINE
  5
23C
100
AcDbEntity
  8
025-DWG
  6
CONTINUOUS
100
AcDbPolyline
 90
       12
 70
   128
 43
0.0
 38
-0.421745
 10
591.997445
 20
711.496951
 10
592.039396
 20
711.551547
 10
592.196505
 20
711.5523
 10
592.34037
 20
711.341278
 10
592.469941
 20
710.929512
 10
592.583078
 20
710.324797
 10
592.678491
 20
709.549052
 10
592.756764
 20
708.60619
 10
592.816711
 20
707.536925
 10
592.859513
 20
706.343478
 10
592.884554
 20
705.082344
 10
592.892296
 20
703.850597
  0
LWPOLYLINE
  5
23D
100
AcDbEntity
  8
025-DWG
  6
CONTINUOUS
100
AcDbPolyline
 90
       15
 70
   128
 43
0.0
 38
-0.421745
 10
592.046633
 20
711.57448
 10
592.041654
 20
711.564944
 10
592.001952
 20
711.475871
 10
591.935996
 20
711.290396
 10
591.851299
 20
710.994152
 10
591.756332
 20
710.584542
 10
591.658899
 20
710.069587
 10
591.564749
 20
709.463577
 10
591.475988
 20
708.765544
 10
591.396567
 20
707.98999
 10
591.329618
 20
707.151745
 10
591.277828
 20
706.269716
 10
591.242195
 20
705.358602
 10
591.222889
 20
704.417592
 10
591.221719
 20
703.853941
  0
LWPOLYLINE
  5
23E
100
AcDbEntity
  8
025-DWG
  6
CONTINUOUS
100
AcDbPolyline
 90
       16
 70
   128
 43
0.0
 38
-0.421745
 10
593.106233
 20
709.220733
 10
593.017263
 20
710.201863
 10
592.902151
 20
711.055299
 10
592.768327
 20
711.690416
 10
592.616513
 20
712.103889
 10
592.451928
 20
712.278348
 10
592.276918
 20
712.21939
 10
592.097839
 20
711.928513
 10
591.91954
 20
711.418338
 10
591.747867
 20
710.698171
 10
591.590121
 20
709.793618
 10
591.451366
 20
708.713895
 10
591.339344
 20
707.502325
 10
591.258497
 20
706.17103
 10
591.213864
 20
704.775796
 10
591.205581
 20
703.855058
  0
LWPOLYLINE
  5
23F
100
AcDbEntity
  8
025-DWG
  6
CONTINUOUS
100
AcDbPolyline
 90
        6
 70
   128
 43
0.0
 38
-0.421745
 10
593.275273
 20
703.855058
 10
593.265102
 20
705.281891
 10
593.234703
 20
706.668791
 10
593.183475
 20
707.976091
 10
593.111106
 20
709.16699
 10
593.106233
 20
709.220733
  0
LWPOLYLINE
  5
240
100
AcDbEntity
  8
025-DWG
  6
CONTINUOUS
100
AcDbPolyline
 90
        5
 70
   128
 43
0.0
 38
-0.421745
 10
584.959952
 20
698.360429
 10
586.560598
 20
697.292161
 10
587.995731
 20
696.330145
 10
589.146006
 20
695.556242
 10
590.376116
 20
694.725868
  0
LWPOLYLINE
  5
241
100
AcDbEntity
  8
025-DWG
  6
CONTINUOUS
100
AcDbPolyline
 90
        5
 70
   128
 43
0.0
 38
-0.421745
 10
591.189499
 20
695.700931
 10
590.283694
 20
696.306687
 10
588.98405
 20
697.173164
 10
587.494407
 20
698.162416
 10
585.748079
 20
699.316751
  0
LINE
  5
242
100
AcDbEntity
  8
025-DWG
  6
CONTINUOUS
100
AcDbLine
 10
591.205581
 20
703.855058
 30
-0.421745
 11
591.189499
 21
695.700931
 31
-0.421745
  0
LINE
  5
243
100
AcDbEntity
  8
025-DWG
  6
CONTINUOUS
100
AcDbLine
 10
593.284784
 20
694.293965
 30
-0.421745
 11
593.275273
 21
703.855058
 31
-0.421745
  0
LINE
  5
244
100
AcDbEntity
  8
025-DWG
  6
CONTINUOUS
100
AcDbLine
 10
592.892268
 20
703.850597
 30
-0.421745
 11
592.901736
 21
694.285238
 31
-0.421745
  0
LWPOLYLINE
  5
245
100
AcDbEntity
  8
025-DWG
  6
CONTINUOUS
100
AcDbPolyline
 90
        4
 70
   128
 43
0.0
 38
-0.421745
 10
593.980545
 20
693.825012
 10
593.888372
 20
693.887198
 10
593.576064
 20
694.097743
 10
593.284784
 20
694.293965
  0
LWPOLYLINE
  5
246
100
AcDbEntity
  8
025-DWG
  6
CONTINUOUS
100
AcDbPolyline
 90
        9
 70
   128
 43
0.0
 38
-0.421745
 10
592.901736
 20
694.285238
 10
592.904561
 20
694.112095
 10
592.888565
 20
693.944505
 10
592.854238
 20
693.787587
 10
592.802628
 20
693.646132
 10
592.735311
 20
693.524458
 10
592.654343
 20
693.426282
 10
592.562195
 20
693.354602
 10
592.461682
 20
693.311607
  0
LWPOLYLINE
  5
247
100
AcDbEntity
  8
025-DWG
  6
CONTINUOUS
100
AcDbPolyline
 90
        9
 70
   128
 43
0.0
 38
-0.421745
 10
592.461682
 20
693.311607
 10
592.62886
 20
693.357285
 10
592.785764
 20
693.431217
 10
592.92766
 20
693.531173
 10
593.050269
 20
693.654138
 10
593.149893
 20
693.796403
 10
593.223525
 20
693.953677
 10
593.268945
 20
694.121215
 10
593.284784
 20
694.293965
  0
LWPOLYLINE
  5
248
100
AcDbEntity
  8
025-DWG
  6
CONTINUOUS
100
AcDbPolyline
 90
        4
 70
   128
 43
0.0
 38
-0.421745
 10
592.461682
 20
693.311607
 10
592.953502
 20
692.976932
 10
593.15914
 20
692.836869
 10
593.156325
 20
692.838786
  0
LWPOLYLINE
  5
249
100
AcDbEntity
  8
025-DWG
  6
CONTINUOUS
100
AcDbPolyline
 90
        3
 70
   128
 43
0.0
 38
-0.421745
 10
591.189499
 20
695.700931
 10
591.20133
 20
695.699708
 10
591.203318
 20
695.698966
  0
LWPOLYLINE
  5
24A
100
AcDbEntity
  8
025-DWG
  6
CONTINUOUS
100
AcDbPolyline
 90
        9
 70
   128
 43
0.0
 38
-0.421745
 10
592.901736
 20
694.285238
 10
592.979958
 20
694.286113
 10
593.050792
 20
694.287072
 10
593.113484
 20
694.288105
 10
593.167364
 20
694.2892
 10
593.211856
 20
694.290346
 10
593.246485
 20
694.29153
 10
593.270881
 20
694.292741
 10
593.284784
 20
694.293965
  0
LINE
  5
24B
100
AcDbEntity
  8
025-DWG
  6
CONTINUOUS
100
AcDbLine
 10
592.901736
 20
694.285238
 30
-0.421745
 11
590.975393
 21
694.056234
 31
-0.421745
  0
LWPOLYLINE
  5
24C
100
AcDbEntity
  8
025-DWG
  6
CONTINUOUS
100
AcDbPolyline
 90
        3
 70
   128
 43
0.0
 38
-0.421745
 10
590.535299
 20
693.083056
 10
592.106414
 20
693.268747
 10
592.461682
 20
693.311607
  0
LWPOLYLINE
  5
24D
100
AcDbEntity
  8
025-DWG
  6
CONTINUOUS
100
AcDbPolyline
 90
        9
 70
   128
 43
0.0
 38
-0.421745
 10
591.189499
 20
695.700931
 10
591.171803
 20
695.530821
 10
591.125523
 20
695.365732
 10
591.052024
 20
695.210536
 10
590.953475
 20
695.069814
 10
590.832786
 20
694.94772
 10
590.693518
 20
694.847856
 10
590.539782
 20
694.773171
 10
590.376116
 20
694.725868
  0
ARC
  5
24E
100
AcDbEntity
  8
025-DWG
  6
CONTINUOUS
100
AcDbCircle
 10
590.20332
 20
695.700931
 30
-0.421745
 40
1.0
100
AcDbArc
 50
289.815168
 51
359.887421
  0
LWPOLYLINE
  5
24F
100
AcDbEntity
  8
025-DWG
  6
CONTINUOUS
100
AcDbPolyline
 90
        4
 70
   128
 43
0.0
 38
-0.421745
 10
591.205581
 20
703.855058
 10
591.213651
 20
703.854691
 10
591.219221
 20
703.854126
 10
591.214996
 20
703.853967
  0
LWPOLYLINE
  5
250
100
AcDbEntity
  8
025-DWG
  6
CONTINUOUS
100
AcDbPolyline
 90
        5
 70
   128
 43
0.0
 38
-0.421745
 10
592.892296
 20
703.850597
 10
593.119103
 20
703.852186
 10
593.251169
 20
703.854126
 10
593.268543
 20
703.854691
 10
593.275273
 20
703.855058
  0
LINE
  5
251
100
AcDbEntity
  8
025-DWG
  6
CONTINUOUS
100
AcDbLine
 10
592.892296
 20
703.850597
 30
-0.421745
 11
592.892268
 21
703.850597
 31
-0.421745
  0
LINE
  5
252
100
AcDbEntity
  8
025-DWG
  6
CONTINUOUS
100
AcDbLine
 10
592.892268
 20
703.850597
 30
-0.421745
 11
591.221712
 21
703.850597
 31
-0.421745
  0
LWPOLYLINE
  5
253
100
AcDbEntity
  8
025-DWG
  6
CONTINUOUS
100
AcDbPolyline
 90
        7
 70
   128
 43
0.0
 38
-0.421745
 10
588.472513
 20
693.927279
 10
588.458737
 20
693.967808
 10
588.502274
 20
694.019748
 10
588.598812
 20
694.078555
 10
588.750492
 20
694.145784
 10
588.811552
 20
694.169172
 10
588.877933
 20
694.193088
  0
LWPOLYLINE
  5
254
100
AcDbEntity
  8
025-DWG
  6
CONTINUOUS
100
AcDbPolyline
 90
        5
 70
   128
 43
0.0
 38
-0.421745
 10
588.472513
 20
693.927279
 10
588.637954
 20
693.973843
 10
588.793313
 20
694.048123
 10
588.933963
 20
694.147907
 10
588.973124
 20
694.182834
  0
LWPOLYLINE
  5
255
100
AcDbEntity
  8
025-DWG
  6
CONTINUOUS
100
AcDbPolyline
 90
        7
 70
   128
 43
0.0
 38
-0.421745
 10
590.535299
 20
693.083056
 10
590.294829
 20
693.057844
 10
590.088023
 20
693.042336
 10
589.932279
 20
693.037956
 10
589.823063
 20
693.044666
 10
589.79681
 20
693.049904
 10
589.777831
 20
693.056636
  0
LWPOLYLINE
  5
256
100
AcDbEntity
  8
025-DWG
  6
CONTINUOUS
100
AcDbPolyline
 90
        3
 70
   128
 43
0.0
 38
-0.421745
 10
588.472513
 20
693.927279
 10
588.719482
 20
693.726753
 10
589.777831
 20
693.056636
  0
LINE
  5
257
100
AcDbEntity
  8
025-DWG
  6
CONTINUOUS
100
AcDbLine
 10
590.538863
 20
694.758911
 30
-0.421745
 11
589.038105
 21
694.226356
 31
-0.421745
  0
LWPOLYLINE
  5
258
100
AcDbEntity
  8
025-DWG
  6
CONTINUOUS
100
AcDbPolyline
 90
        4
 70
   128
 43
0.0
 38
-0.421745
 10
589.036883
 20
694.225551
 10
589.01482
 20
694.218136
 10
588.902137
 20
694.174265
 10
588.88432
 20
694.166081
  0
LWPOLYLINE
  5
259
100
AcDbEntity
  8
025-DWG
  6
CONTINUOUS
100
AcDbPolyline
 90
        3
 70
   128
 43
0.0
 38
-0.421745
 10
590.376116
 20
694.725868
 10
589.177693
 20
694.298374
 10
588.877933
 20
694.193088
  0
LWPOLYLINE
  5
25A
100
AcDbEntity
  8
025-DWG
  6
CONTINUOUS
100
AcDbPolyline
 90
        3
 70
   128
 43
0.0
 38
-0.421745
 10
590.376116
 20
694.725868
 10
590.519655
 20
694.752491
 10
590.542307
 20
694.76014
  0
LWPOLYLINE
  5
25B
100
AcDbEntity
  8
025-DWG
  6
CONTINUOUS
100
AcDbPolyline
 90
        3
 70
   128
 43
0.0
 38
-0.421745
 10
588.877933
 20
694.193088
 10
589.020887
 20
694.220523
 10
589.038161
 20
694.226376
  0
LWPOLYLINE
  5
25C
100
AcDbEntity
  8
025-DWG
  6
CONTINUOUS
100
AcDbPolyline
 90
        6
 70
   128
 43
0.0
 38
-0.421745
 10
590.596685
 20
694.038103
 10
590.62756
 20
694.022206
 10
590.683392
 20
694.015789
 10
590.759759
 20
694.01942
 10
590.858796
 20
694.033103
 10
590.975393
 20
694.056234
  0
LINE
  5
25D
100
AcDbEntity
  8
025-DWG
  6
CONTINUOUS
100
AcDbLine
 10
590.975393
 20
694.056234
 30
-0.421745
 11
590.973844
 21
695.063521
 31
-0.421745
  0
LINE
  5
25E
100
AcDbEntity
  8
025-DWG
  6
CONTINUOUS
100
AcDbLine
 10
590.595543
 20
694.781061
 30
-0.421745
 11
590.596685
 21
694.038103
 31
-0.421745
  0
LWPOLYLINE
  5
25F
100
AcDbEntity
  8
025-DWG
  6
CONTINUOUS
100
AcDbPolyline
 90
        9
 70
   128
 43
0.0
 38
-0.421745
 10
590.596685
 20
694.038103
 10
590.580498
 20
693.865838
 10
590.53502
 20
693.698742
 10
590.461618
 20
693.541831
 10
590.362494
 20
693.399812
 10
590.240622
 20
693.276948
 10
590.09966
 20
693.176925
 10
589.943837
 20
693.102746
 10
589.777831
 20
693.056636
  0
LWPOLYLINE
  5
260
100
AcDbEntity
  8
025-DWG
  6
CONTINUOUS
100
AcDbPolyline
 90
        9
 70
   128
 43
0.0
 38
-0.421745
 10
590.975393
 20
694.056234
 10
590.977719
 20
693.883632
 10
590.961372
 20
693.716529
 10
590.926848
 20
693.55999
 10
590.875195
 20
693.418764
 10
590.807977
 20
693.297131
 10
590.727234
 20
693.19878
 10
590.635413
 20
693.126693
 10
590.535299
 20
693.083056
  0
LWPOLYLINE
  5
261
100
AcDbEntity
  8
025-DWG
  6
CONTINUOUS
100
AcDbPolyline
 90
        3
 70
   128
 43
0.0
 38
-0.421745
 10
590.596685
 20
694.038103
 10
589.943547
 20
694.413581
 10
589.868226
 20
694.464349
  0
LWPOLYLINE
  5
262
100
AcDbEntity
  8
025-DWG
  6
CONTINUOUS
100
AcDbPolyline
 90
        3
 70
   128
 43
0.0
 38
-0.421745
 10
568.022236
 20
735.708899
 10
596.418927
 20
739.714538
 10
624.991625
 20
743.57733
  0
LWPOLYLINE
  5
263
100
AcDbEntity
  8
025-DWG
  6
CONTINUOUS
100
AcDbPolyline
 90
        3
 70
   128
 43
0.0
 38
-0.421745
 10
624.698433
 20
744.552268
 10
596.423777
 20
740.724967
 10
568.321331
 20
736.757116
  0
LINE
  5
264
100
AcDbEntity
  8
035-DWG
  6
CONTINUOUS
100
AcDbLine
 10
573.920203
 20
741.522371
 30
-0.421745
 11
611.253437
 21
745.458722
 31
-0.421745
  0
LWPOLYLINE
  5
265
100
AcDbEntity
  8
035-DWG
  6
CONTINUOUS
100
AcDbPolyline
 90
        6
 70
   128
 43
0.0
 38
-0.421745
 10
568.022236
 20
735.708899
 10
568.039128
 20
736.005586
 10
568.086452
 20
736.276738
 10
568.167761
 20
736.526732
 10
568.28514
 20
736.721594
 10
568.321331
 20
736.757116
  0
LWPOLYLINE
  5
266
100
AcDbEntity
  8
035-DWG
  6
CONTINUOUS
100
AcDbPolyline
 90
        5
 70
   128
 43
0.0
 38
-0.421745
 10
568.321331
 20
736.757116
 10
569.900864
 20
738.095716
 10
571.362093
 20
739.338119
 10
572.704171
 20
740.482606
 10
573.920203
 20
741.522371
  0
LWPOLYLINE
  5
267
100
AcDbEntity
  8
035-DWG
  6
CONTINUOUS
100
AcDbPolyline
 90
        5
 70
   128
 43
0.0
 38
-0.421745
 10
621.477935
 20
736.248687
 10
621.136489
 20
736.196464
 10
620.578253
 20
736.005376
 10
620.045133
 20
735.70993
 10
620.022757
 20
735.693845
  0
LWPOLYLINE
  5
268
100
AcDbEntity
  8
035-DWG
  6
CONTINUOUS
100
AcDbPolyline
 90
        5
 70
   128
 43
0.0
 38
-0.421745
 10
621.479063
 20
736.248837
 10
621.137687
 20
736.196628
 10
620.579434
 20
736.005497
 10
620.046082
 20
735.709959
 10
620.02378
 20
735.693928
  0
LWPOLYLINE
  5
269
100
AcDbEntity
  8
025-DWG
  6
CONTINUOUS
100
AcDbPolyline
 90
        9
 70
   128
 43
0.0
 38
-0.421745
 10
620.078736
 20
735.73479
 10
620.104113
 20
735.757002
 10
620.109117
 20
735.809011
 10
620.093566
 20
735.888926
 10
620.058025
 20
735.993843
 10
620.003786
 20
736.119947
 10
619.932822
 20
736.262656
 10
619.847711
 20
736.416781
 10
619.751547
 20
736.57672
  0
LWPOLYLINE
  5
26A
100
AcDbEntity
  8
025-DWG
  6
CONTINUOUS
100
AcDbPolyline
 90
        8
 70
   128
 43
0.0
 38
-0.421745
 10
626.921123
 20
743.921419
 10
628.184782
 20
745.295411
 10
629.26662
 20
746.4717
 10
630.161543
 20
747.444751
 10
630.86446
 20
748.209032
 10
631.383512
 20
748.773395
 10
631.694433
 20
749.111457
 10
631.793904
 20
749.219611
  0
LWPOLYLINE
  5
26B
100
AcDbEntity
  8
035-DWG
  6
CONTINUOUS
100
AcDbPolyline
 90
       14
 70
   128
 43
0.0
 38
-0.421745
 10
631.541568
 20
742.818981
 10
631.53166
 20
742.807921
 10
631.457427
 20
742.725051
 10
631.310692
 20
742.561236
 10
631.091449
 20
742.316452
 10
630.799669
 20
741.990655
 10
630.435192
 20
741.583656
 10
629.997757
 20
741.095147
 10
629.48689
 20
740.524588
 10
628.902786
 20
739.872171
 10
628.248684
 20
739.141478
 10
627.517872
 20
738.324976
 10
626.711694
 20
737.424121
 10
626.682929
 20
737.391971
  0
LWPOLYLINE
  5
26C
100
AcDbEntity
  8
025-DWG
  6
CONTINUOUS
100
AcDbPolyline
 90
        8
 70
   128
 43
0.0
 38
-0.421745
 10
631.790087
 20
743.47885
 10
631.706282
 20
743.385666
 10
631.413101
 20
743.059698
 10
630.918624
 20
742.509875
 10
630.225732
 20
741.739334
 10
629.320217
 20
740.732191
 10
628.216636
 20
739.504499
 10
626.921123
 20
738.062934
  0
LWPOLYLINE
  5
26D
100
AcDbEntity
  8
025-DWG
  6
CONTINUOUS
100
AcDbPolyline
 90
        9
 70
   128
 43
0.0
 38
-0.421745
 10
630.70673
 20
750.21576
 10
630.708853
 20
750.218088
 10
630.600354
 20
750.099128
 10
630.295709
 20
749.765112
 10
629.797013
 20
749.218335
 10
629.106979
 20
748.461771
 10
628.212386
 20
747.480922
 10
627.126861
 20
746.290727
 10
625.856043
 20
744.897365
  0
LINE
  5
26E
100
AcDbEntity
  8
035-DWG
  6
CONTINUOUS
100
AcDbLine
 10
616.68374
 20
748.99179
 30
-0.421745
 11
630.70648
 21
750.218621
 31
-0.421745
  0
LINE
  5
26F
100
AcDbEntity
  8
025-DWG
  6
CONTINUOUS
100
AcDbLine
 10
624.991625
 20
743.57733
 30
-0.421745
 11
624.991625
 21
737.712631
 31
-0.421745
  0
LINE
  5
270
100
AcDbEntity
  8
025-DWG
  6
CONTINUOUS
100
AcDbLine
 10
626.921123
 20
738.062934
 30
-0.421745
 11
626.921123
 21
743.921419
 31
-0.421745
  0
LWPOLYLINE
  5
271
100
AcDbEntity
  8
035-DWG
  6
CONTINUOUS
100
AcDbPolyline
 90
        8
 70
   128
 43
0.0
 38
-0.421745
 10
626.685357
 20
737.402327
 10
626.644767
 20
737.351648
 10
626.457626
 20
737.19541
 10
626.236439
 20
737.066967
 10
625.933217
 20
736.944
 10
625.537428
 20
736.833035
 10
625.127761
 20
736.752754
 10
624.912672
 20
736.724526
  0
LINE
  5
272
100
AcDbEntity
  8
035-DWG
  6
CONTINUOUS
100
AcDbLine
 10
626.712722
 20
737.42527
 30
-0.421745
 11
626.68323
 21
737.392308
 31
-0.421745
  0
LINE
  5
273
100
AcDbEntity
  8
035-DWG
  6
CONTINUOUS
100
AcDbLine
 10
621.429197
 20
736.279246
 30
-0.421745
 11
624.868931
 21
736.73876
 31
-0.421745
  0
LINE
  5
274
100
AcDbEntity
  8
025-DWG
  6
CONTINUOUS
100
AcDbLine
 10
624.991625
 20
737.712631
 30
-0.421745
 11
621.551951
 21
737.25244
 31
-0.421745
  0
LWPOLYLINE
  5
275
100
AcDbEntity
  8
025-DWG
  6
CONTINUOUS
100
AcDbPolyline
 90
        9
 70
   128
 43
0.0
 38
-0.421745
 10
624.991625
 20
737.712631
 10
625.014241
 20
737.496222
 10
625.025744
 20
737.290246
 10
625.025579
 20
737.104634
 10
625.013753
 20
736.948335
 10
624.990838
 20
736.828884
 10
624.957938
 20
736.75204
 10
624.916638
 20
736.721508
 10
624.913171
 20
736.721135
  0
LWPOLYLINE
  5
276
100
AcDbEntity
  8
025-DWG
  6
CONTINUOUS
100
AcDbPolyline
 90
        5
 70
   128
 43
0.0
 38
-0.421745
 10
626.921123
 20
738.062934
 10
626.911621
 20
737.877635
 10
626.866813
 20
737.699079
 10
626.788331
 20
737.533765
 10
626.689428
 20
737.399237
  0
LINE
  5
277
100
AcDbEntity
  8
025-DWG
  6
CONTINUOUS
100
AcDbLine
 10
624.913171
 20
736.721135
 30
-0.421745
 11
624.868931
 21
736.73876
 31
-0.421745
  0
LWPOLYLINE
  5
278
100
AcDbEntity
  8
025-DWG
  6
CONTINUOUS
100
AcDbPolyline
 90
        5
 70
   128
 43
0.0
 38
-0.421745
 10
621.551951
 20
737.25244
 10
620.836195
 20
737.091857
 10
620.137042
 20
736.801915
 10
619.941812
 20
736.694318
 10
619.751547
 20
736.57672
  0
LWPOLYLINE
  5
279
100
AcDbEntity
  8
025-DWG
  6
CONTINUOUS
100
AcDbPolyline
 90
        3
 70
   128
 43
0.0
 38
-0.421745
 10
621.429197
 20
736.279246
 10
621.477072
 20
736.261326
 10
621.476938
 20
736.261308
  0
LWPOLYLINE
  5
27A
100
AcDbEntity
  8
025-DWG
  6
CONTINUOUS
100
AcDbPolyline
 90
        8
 70
   128
 43
0.0
 38
-0.421745
 10
621.476938
 20
736.261308
 10
621.518511
 20
736.29136
 10
621.551509
 20
736.367893
 10
621.574469
 20
736.487224
 10
621.586282
 20
736.643577
 10
621.586375
 20
736.82939
 10
621.574743
 20
737.035671
 10
621.551951
 20
737.25244
  0
LWPOLYLINE
  5
27B
100
AcDbEntity
  8
025-DWG
  6
CONTINUOUS
100
AcDbPolyline
 90
        5
 70
   128
 43
0.0
 38
-0.421745
 10
626.921123
 20
738.062934
 10
626.613306
 20
737.946489
 10
626.059249
 20
737.835117
 10
625.322192
 20
737.742223
 10
624.991625
 20
737.712631
  0
LWPOLYLINE
  5
27C
100
AcDbEntity
  8
035-DWG
  6
CONTINUOUS
100
AcDbPolyline
 90
       11
 70
   128
 43
0.0
 38
-0.421745
 10
613.305184
 20
745.830549
 10
613.442681
 20
745.972392
 10
614.044983
 20
746.593928
 10
614.565773
 20
747.131489
 10
615.00531
 20
747.585268
 10
615.372104
 20
747.964009
 10
615.662144
 20
748.263546
 10
615.875756
 20
748.484188
 10
616.013178
 20
748.626156
 10
616.074547
 20
748.689564
 10
616.077827
 20
748.692953
  0
LWPOLYLINE
  5
27D
100
AcDbEntity
  8
035-DWG
  6
CONTINUOUS
100
AcDbPolyline
 90
        7
 70
   128
 43
0.0
 38
-0.421745
 10
613.902287
 20
746.083876
 10
614.83514
 20
747.050488
 10
615.583433
 20
747.826171
 10
616.146956
 20
748.410495
 10
616.517701
 20
748.795013
 10
616.695424
 20
748.979357
 10
616.685709
 20
748.969281
  0
LWPOLYLINE
  5
27E
100
AcDbEntity
  8
035-DWG
  6
CONTINUOUS
100
AcDbPolyline
 90
        9
 70
   128
 43
0.0
 38
-0.421745
 10
616.680234
 20
748.991046
 10
616.595666
 20
748.977432
 10
616.512573
 20
748.95663
 10
616.431565
 20
748.928794
 10
616.353236
 20
748.894127
 10
616.278161
 20
748.852885
 10
616.206892
 20
748.805368
 10
616.13995
 20
748.751927
 10
616.07824
 20
748.693381
  0
LWPOLYLINE
  5
27F
100
AcDbEntity
  8
035-DWG
  6
CONTINUOUS
100
AcDbPolyline
 90
        5
 70
   128
 43
0.0
 38
-0.421745
 10
611.253437
 20
745.458722
 10
612.22451
 20
745.587712
 10
613.045553
 20
745.751253
 10
613.636048
 20
745.931601
 10
613.902287
 20
746.083876
  0
LWPOLYLINE
  5
280
100
AcDbEntity
  8
025-DWG
  6
CONTINUOUS
100
AcDbPolyline
 90
        9
 70
   128
 43
0.0
 38
-0.421745
 10
624.698433
 20
744.552268
 10
624.738921
 20
744.506322
 10
624.780752
 20
744.432542
 10
624.822672
 20
744.333137
 10
624.863425
 20
744.211087
 10
624.90179
 20
744.070049
 10
624.936618
 20
743.914247
 10
624.966865
 20
743.748351
 10
624.991625
 20
743.57733
  0
LWPOLYLINE
  5
281
100
AcDbEntity
  8
025-DWG
  6
CONTINUOUS
100
AcDbPolyline
 90
        9
 70
   128
 43
0.0
 38
-0.421745
 10
625.856043
 20
744.897365
 10
626.053561
 20
744.886068
 10
626.24653
 20
744.835627
 10
626.427118
 20
744.748091
 10
626.587998
 20
744.62701
 10
626.722642
 20
744.477299
 10
626.825586
 20
744.305031
 10
626.892653
 20
744.117197
 10
626.921123
 20
743.921419
  0
LWPOLYLINE
  5
282
100
AcDbEntity
  8
025-DWG
  6
CONTINUOUS
100
AcDbPolyline
 90
        5
 70
   128
 43
0.0
 38
-0.421745
 10
625.856043
 20
744.897365
 10
625.666969
 20
744.781108
 10
625.324648
 20
744.669663
 10
624.870082
 20
744.577288
 10
624.698433
 20
744.552268
  0
LWPOLYLINE
  5
283
100
AcDbEntity
  8
025-DWG
  6
CONTINUOUS
100
AcDbPolyline
 90
        5
 70
   128
 43
0.0
 38
-0.421745
 10
624.991625
 20
743.57733
 10
625.773382
 20
743.657601
 10
626.406067
 20
743.759912
 10
626.822452
 20
743.87296
 10
626.921123
 20
743.921419
  0
ARC
  5
284
100
AcDbEntity
  8
035-DWG
  6
CONTINUOUS
100
AcDbCircle
 10
630.796743
 20
749.222698
 30
-0.421745
 40
1.0
100
AcDbArc
 50
359.828216
 51
95.149226
  0
LWPOLYLINE
  5
285
100
AcDbEntity
  8
035-DWG
  6
CONTINUOUS
100
AcDbPolyline
 90
        9
 70
   128
 43
0.0
 38
-0.421745
 10
631.541627
 20
742.819047
 10
631.598734
 20
742.888905
 10
631.649358
 20
742.963701
 10
631.693027
 20
743.04276
 10
631.729385
 20
743.125436
 10
631.758135
 20
743.211056
 10
631.779042
 20
743.29892
 10
631.791937
 20
743.388312
 10
631.796713
 20
743.478504
  0
LINE
  5
286
100
AcDbEntity
  8
035-DWG
  6
CONTINUOUS
100
AcDbLine
 10
631.796743
 20
749.219577
 30
-0.421745
 11
631.796743
 21
743.478882
 31
-0.421745
  0
ARC
  5
287
100
AcDbEntity
  8
035-DWG
100
AcDbCircle
 10
583.85
 20
1000.669091
 30
-0.421745
 40
2.0
100
AcDbArc
 50
0.0
 51
90.0
  0
LINE
  5
288
100
AcDbEntity
  8
035-DWG
100
AcDbLine
 10
575.7
 20
857.169091
 30
-0.421745
 11
575.7
 21
915.92133
 31
-0.421745
  0
LINE
  5
289
100
AcDbEntity
  8
035-DWG
100
AcDbLine
 10
579.9
 20
849.869091
 30
-0.421745
 11
579.9
 21
838.169091
 31
-0.421745
  0
ARC
  5
28A
100
AcDbEntity
  8
035-DWG
100
AcDbCircle
 10
576.6
 20
849.869091
 30
-0.421745
 40
3.3
100
AcDbArc
 50
0.0
 51
90.0
  0
ARC
  5
28B
100
AcDbEntity
  8
035-DWG
100
AcDbCircle
 10
561.4
 20
852.369091
 30
-0.421745
 40
2.0
100
AcDbArc
 50
90.0
 51
156.421822
  0
ARC
  5
28C
100
AcDbEntity
  8
035-DWG
100
AcDbCircle
 10
565.9
 20
856.969091
 30
-0.421745
 40
3.8
100
AcDbArc
 50
237.363102
 51
302.636898
  0
ARC
  5
28D
100
AcDbEntity
  8
035-DWG
100
AcDbCircle
 10
569.99878
 20
850.569091
 30
-0.421745
 40
3.8
100
AcDbArc
 50
90.0
 51
122.636898
  0
ARC
  5
28E
100
AcDbEntity
  8
035-DWG
100
AcDbCircle
 10
572.9
 20
857.169091
 30
-0.421745
 40
2.8
100
AcDbArc
 50
270.0
 51
360.0
  0
ARC
  5
28F
100
AcDbEntity
  8
035-DWG
100
AcDbCircle
 10
561.80122
 20
850.569091
 30
-0.421745
 40
3.8
100
AcDbArc
 50
57.363102
 51
90.0
  0
LINE
  5
290
100
AcDbEntity
  8
035-DWG
  6
CONTINUOUS
100
AcDbLine
 10
565.072236
 20
923.718078
 30
-0.421745
 11
565.072236
 21
961.27799
 31
-0.421745
  0
LINE
  5
291
100
AcDbEntity
  8
025-DWG
  6
CONTINUOUS
100
AcDbLine
 10
616.801547
 20
962.145811
 30
-0.421745
 11
583.784864
 21
940.563876
 31
-0.421745
  0
LINE
  5
292
100
AcDbEntity
  8
035-DWG
  6
CONTINUOUS
100
AcDbLine
 10
592.351738
 20
945.111107
 30
-0.421745
 11
617.128736
 21
961.303881
 31
-0.421745
  0
LINE
  5
293
100
AcDbEntity
  8
035-DWG
  6
CONTINUOUS
100
AcDbLine
 10
591.035694
 20
944.239879
 30
-0.421745
 11
591.035694
 21
919.394103
 31
-0.421745
  0
LINE
  5
294
100
AcDbEntity
  8
025-DWG
  6
CONTINUOUS
100
AcDbLine
 10
582.559729
 20
925.807574
 30
-0.421745
 11
582.559729
 21
937.15672
 31
-0.421745
  0
LWPOLYLINE
  5
295
100
AcDbEntity
  8
025-DWG
  6
CONTINUOUS
100
AcDbPolyline
 90
       12
 70
   128
 43
0.0
 38
-0.421745
 10
589.047445
 20
937.066043
 10
589.089396
 20
937.120638
 10
589.246505
 20
937.121392
 10
589.39037
 20
936.910369
 10
589.519941
 20
936.498604
 10
589.633078
 20
935.893889
 10
589.728491
 20
935.118143
 10
589.806764
 20
934.175281
 10
589.866711
 20
933.106016
 10
589.909513
 20
931.912569
 10
589.934554
 20
930.651435
 10
589.942296
 20
929.419688
  0
LWPOLYLINE
  5
296
100
AcDbEntity
  8
025-DWG
  6
CONTINUOUS
100
AcDbPolyline
 90
       15
 70
   128
 43
0.0
 38
-0.421745
 10
589.096633
 20
937.143571
 10
589.091654
 20
937.134035
 10
589.051952
 20
937.044962
 10
588.985996
 20
936.859487
 10
588.901299
 20
936.563243
 10
588.806332
 20
936.153633
 10
588.708899
 20
935.638678
 10
588.614749
 20
935.032668
 10
588.525988
 20
934.334635
 10
588.446567
 20
933.559081
 10
588.379618
 20
932.720836
 10
588.327828
 20
931.838807
 10
588.292195
 20
930.927693
 10
588.272889
 20
929.986683
 10
588.271719
 20
929.423032
  0
LWPOLYLINE
  5
297
100
AcDbEntity
  8
025-DWG
  6
CONTINUOUS
100
AcDbPolyline
 90
       16
 70
   128
 43
0.0
 38
-0.421745
 10
590.156233
 20
934.789825
 10
590.067263
 20
935.770955
 10
589.952151
 20
936.62439
 10
589.818327
 20
937.259507
 10
589.666513
 20
937.67298
 10
589.501928
 20
937.847439
 10
589.326918
 20
937.788481
 10
589.147839
 20
937.497604
 10
588.96954
 20
936.98743
 10
588.797867
 20
936.267262
 10
588.640121
 20
935.362709
 10
588.501366
 20
934.282986
 10
588.389344
 20
933.071416
 10
588.308497
 20
931.740121
 10
588.263864
 20
930.344888
 10
588.255581
 20
929.424149
  0
LWPOLYLINE
  5
298
100
AcDbEntity
  8
025-DWG
  6
CONTINUOUS
100
AcDbPolyline
 90
        6
 70
   128
 43
0.0
 38
-0.421745
 10
590.325273
 20
929.424149
 10
590.315102
 20
930.850982
 10
590.284703
 20
932.237882
 10
590.233475
 20
933.545182
 10
590.161106
 20
934.736081
 10
590.156233
 20
934.789825
  0
LINE
  5
299
100
AcDbEntity
  8
025-DWG
  6
CONTINUOUS
100
AcDbLine
 10
581.809521
 20
937.15672
 30
-0.421745
 11
581.809521
 21
925.807574
 31
-0.421745
  0
LINE
  5
29A
100
AcDbEntity
  8
035-DWG
  6
CONTINUOUS
100
AcDbLine
 10
590.206767
 20
918.405368
 30
-0.421745
 11
575.781675
 21
915.861835
 31
-0.421745
  0
LINE
  5
29B
100
AcDbEntity
  8
025-DWG
  6
CONTINUOUS
100
AcDbLine
 10
582.559729
 20
925.807574
 30
-0.421745
 11
581.809521
 21
925.807574
 31
-0.421745
  0
LWPOLYLINE
  5
29C
100
AcDbEntity
  8
025-DWG
  6
CONTINUOUS
100
AcDbPolyline
 90
        5
 70
   128
 43
0.0
 38
-0.421745
 10
581.809521
 20
925.807574
 10
581.854071
 20
925.171517
 10
581.906108
 20
924.610718
 10
581.959838
 20
924.183139
 10
582.009952
 20
923.92952
  0
LWPOLYLINE
  5
29D
100
AcDbEntity
  8
025-DWG
  6
CONTINUOUS
100
AcDbPolyline
 90
        4
 70
   128
 43
0.0
 38
-0.421745
 10
565.629265
 20
921.889913
 10
568.08261
 20
922.192473
 10
575.474479
 20
923.110277
 10
582.009952
 20
923.92952
  0
LWPOLYLINE
  5
29E
100
AcDbEntity
  8
035-DWG
  6
CONTINUOUS
100
AcDbPolyline
 90
        5
 70
   128
 43
0.0
 38
-0.421745
 10
565.629265
 20
921.889913
 10
565.391728
 20
922.151816
 10
565.196344
 20
922.653304
 10
565.093928
 20
923.252
 10
565.072236
 20
923.718078
  0
LWPOLYLINE
  5
29F
100
AcDbEntity
  8
035-DWG
  6
CONTINUOUS
100
AcDbPolyline
 90
       10
 70
   128
 43
0.0
 38
-0.421745
 10
575.779696
 20
915.87306
 10
575.7
 20
915.92133
 10
575.363482
 20
916.12444
 10
574.782925
 20
916.474296
 10
573.93034
 20
916.987086
 10
572.822389
 20
917.650914
 10
571.464054
 20
918.460642
 10
569.860317
 20
919.411132
 10
567.879542
 20
920.576937
 10
565.629265
 20
921.889913
  0
LINE
  5
2A0
100
AcDbEntity
  8
025-DWG
  6
CONTINUOUS
100
AcDbLine
 10
581.809521
 20
925.807574
 30
-0.421745
 11
565.072236
 21
923.718078
 31
-0.421745
  0
LWPOLYLINE
  5
2A1
100
AcDbEntity
  8
025-DWG
  6
CONTINUOUS
100
AcDbPolyline
 90
        5
 70
   128
 43
0.0
 38
-0.421745
 10
582.009952
 20
923.92952
 10
583.610598
 20
922.861252
 10
585.045731
 20
921.899236
 10
586.196006
 20
921.125333
 10
587.426116
 20
920.29496
  0
LWPOLYLINE
  5
2A2
100
AcDbEntity
  8
025-DWG
  6
CONTINUOUS
100
AcDbPolyline
 90
        5
 70
   128
 43
0.0
 38
-0.421745
 10
588.239499
 20
921.270022
 10
587.333694
 20
921.875778
 10
586.03405
 20
922.742255
 10
584.544407
 20
923.731508
 10
582.798079
 20
924.885842
  0
LWPOLYLINE
  5
2A3
100
AcDbEntity
  8
025-DWG
  6
CONTINUOUS
100
AcDbPolyline
 90
        5
 70
   128
 43
0.0
 38
-0.421745
 10
582.798079
 20
924.885842
 10
582.698121
 20
925.012476
 10
582.615961
 20
925.254493
 10
582.570788
 20
925.550353
 10
582.559729
 20
925.807574
  0
LWPOLYLINE
  5
2A4
100
AcDbEntity
  8
025-DWG
  6
CONTINUOUS
100
AcDbPolyline
 90
        9
 70
   128
 43
0.0
 38
-0.421745
 10
582.798079
 20
924.885842
 10
582.776055
 20
924.722264
 10
582.727892
 20
924.563248
 10
582.654932
 20
924.413228
 10
582.55921
 20
924.27639
 10
582.443397
 20
924.156549
 10
582.310721
 20
924.057048
 10
582.164884
 20
923.980661
 10
582.009952
 20
923.92952
  0
LINE
  5
2A5
100
AcDbEntity
  8
025-DWG
  6
CONTINUOUS
100
AcDbLine
 10
588.255581
 20
929.424149
 30
-0.421745
 11
588.239499
 21
921.270022
 31
-0.421745
  0
LINE
  5
2A6
100
AcDbEntity
  8
025-DWG
  6
CONTINUOUS
100
AcDbLine
 10
590.334784
 20
919.863056
 30
-0.421745
 11
590.325273
 21
929.424149
 31
-0.421745
  0
LINE
  5
2A7
100
AcDbEntity
  8
025-DWG
  6
CONTINUOUS
100
AcDbLine
 10
589.942268
 20
929.419688
 30
-0.421745
 11
589.951736
 21
919.854329
 31
-0.421745
  0
LWPOLYLINE
  5
2A8
100
AcDbEntity
  8
025-DWG
  6
CONTINUOUS
100
AcDbPolyline
 90
        4
 70
   128
 43
0.0
 38
-0.421745
 10
591.030545
 20
919.394103
 10
590.938372
 20
919.45629
 10
590.626064
 20
919.666835
 10
590.334784
 20
919.863056
  0
ARC
  5
2A9
100
AcDbEntity
  8
035-DWG
  6
CONTINUOUS
100
AcDbCircle
 10
590.035694
 20
919.39063
 30
-0.421745
 40
1.0
100
AcDbArc
 50
279.844267
 51
0.197663
  0
LWPOLYLINE
  5
2AA
100
AcDbEntity
  8
025-DWG
  6
CONTINUOUS
100
AcDbPolyline
 90
        7
 70
   128
 43
0.0
 38
-0.421745
 10
585.522513
 20
919.496371
 10
585.508737
 20
919.5369
 10
585.552274
 20
919.588839
 10
585.648812
 20
919.647646
 10
585.800492
 20
919.714875
 10
585.861552
 20
919.738263
 10
585.927933
 20
919.762179
  0
LWPOLYLINE
  5
2AB
100
AcDbEntity
  8
025-DWG
  6
CONTINUOUS
100
AcDbPolyline
 90
        5
 70
   128
 43
0.0
 38
-0.421745
 10
585.522513
 20
919.496371
 10
585.687954
 20
919.542934
 10
585.843313
 20
919.617214
 10
585.983963
 20
919.716998
 10
586.023124
 20
919.751925
  0
LWPOLYLINE
  5
2AC
100
AcDbEntity
  8
025-DWG
  6
CONTINUOUS
100
AcDbPolyline
 90
        7
 70
   128
 43
0.0
 38
-0.421745
 10
587.585299
 20
918.652147
 10
587.344829
 20
918.626936
 10
587.138023
 20
918.611427
 10
586.982279
 20
918.607047
 10
586.873063
 20
918.613757
 10
586.84681
 20
918.618996
 10
586.827831
 20
918.625728
  0
LWPOLYLINE
  5
2AD
100
AcDbEntity
  8
025-DWG
  6
CONTINUOUS
100
AcDbPolyline
 90
        3
 70
   128
 43
0.0
 38
-0.421745
 10
585.522513
 20
919.496371
 10
585.769482
 20
919.295844
 10
586.827831
 20
918.625728
  0
LINE
  5
2AE
100
AcDbEntity
  8
025-DWG
  6
CONTINUOUS
100
AcDbLine
 10
587.588863
 20
920.328002
 30
-0.421745
 11
586.088105
 21
919.795447
 31
-0.421745
  0
LWPOLYLINE
  5
2AF
100
AcDbEntity
  8
025-DWG
  6
CONTINUOUS
100
AcDbPolyline
 90
        4
 70
   128
 43
0.0
 38
-0.421745
 10
586.086883
 20
919.794642
 10
586.06482
 20
919.787227
 10
585.952137
 20
919.743356
 10
585.93432
 20
919.735173
  0
LWPOLYLINE
  5
2B0
100
AcDbEntity
  8
025-DWG
  6
CONTINUOUS
100
AcDbPolyline
 90
        3
 70
   128
 43
0.0
 38
-0.421745
 10
587.426116
 20
920.29496
 10
586.227693
 20
919.867465
 10
585.927933
 20
919.762179
  0
LWPOLYLINE
  5
2B1
100
AcDbEntity
  8
025-DWG
  6
CONTINUOUS
100
AcDbPolyline
 90
        3
 70
   128
 43
0.0
 38
-0.421745
 10
587.426116
 20
920.29496
 10
587.569655
 20
920.321582
 10
587.592307
 20
920.329231
  0
LWPOLYLINE
  5
2B2
100
AcDbEntity
  8
025-DWG
  6
CONTINUOUS
100
AcDbPolyline
 90
        3
 70
   128
 43
0.0
 38
-0.421745
 10
585.927933
 20
919.762179
 10
586.070887
 20
919.789615
 10
586.088161
 20
919.795467
  0
LWPOLYLINE
  5
2B3
100
AcDbEntity
  8
025-DWG
  6
CONTINUOUS
100
AcDbPolyline
 90
        9
 70
   128
 43
0.0
 38
-0.421745
 10
589.951736
 20
919.854329
 10
589.954561
 20
919.681186
 10
589.938565
 20
919.513597
 10
589.904238
 20
919.356678
 10
589.852628
 20
919.215223
 10
589.785311
 20
919.093549
 10
589.704343
 20
918.995374
 10
589.612195
 20
918.923694
 10
589.511682
 20
918.880698
  0
LWPOLYLINE
  5
2B4
100
AcDbEntity
  8
025-DWG
  6
CONTINUOUS
100
AcDbPolyline
 90
        9
 70
   128
 43
0.0
 38
-0.421745
 10
589.511682
 20
918.880698
 10
589.67886
 20
918.926376
 10
589.835764
 20
919.000308
 10
589.97766
 20
919.100264
 10
590.100269
 20
919.223229
 10
590.199893
 20
919.365495
 10
590.273525
 20
919.522768
 10
590.318945
 20
919.690307
 10
590.334784
 20
919.863056
  0
LWPOLYLINE
  5
2B5
100
AcDbEntity
  8
025-DWG
  6
CONTINUOUS
100
AcDbPolyline
 90
        4
 70
   128
 43
0.0
 38
-0.421745
 10
589.511682
 20
918.880698
 10
590.003502
 20
918.546023
 10
590.20914
 20
918.40596
 10
590.206325
 20
918.407878
  0
LWPOLYLINE
  5
2B6
100
AcDbEntity
  8
025-DWG
  6
CONTINUOUS
100
AcDbPolyline
 90
        6
 70
   128
 43
0.0
 38
-0.421745
 10
587.646685
 20
919.607194
 10
587.67756
 20
919.591297
 10
587.733392
 20
919.58488
 10
587.809759
 20
919.588511
 10
587.908796
 20
919.602194
 10
588.025393
 20
919.625325
  0
LWPOLYLINE
  5
2B7
100
AcDbEntity
  8
025-DWG
  6
CONTINUOUS
100
AcDbPolyline
 90
        3
 70
   128
 43
0.0
 38
-0.421745
 10
588.239499
 20
921.270022
 10
588.25133
 20
921.268799
 10
588.253318
 20
921.268058
  0
LINE
  5
2B8
100
AcDbEntity
  8
025-DWG
  6
CONTINUOUS
100
AcDbLine
 10
588.025393
 20
919.625325
 30
-0.421745
 11
588.023844
 21
920.632612
 31
-0.421745
  0
LWPOLYLINE
  5
2B9
100
AcDbEntity
  8
025-DWG
  6
CONTINUOUS
100
AcDbPolyline
 90
        9
 70
   128
 43
0.0
 38
-0.421745
 10
589.951736
 20
919.854329
 10
590.029958
 20
919.855204
 10
590.100792
 20
919.856163
 10
590.163484
 20
919.857196
 10
590.217364
 20
919.858291
 10
590.261856
 20
919.859437
 10
590.296485
 20
919.860621
 10
590.320881
 20
919.861832
 10
590.334784
 20
919.863056
  0
LINE
  5
2BA
100
AcDbEntity
  8
025-DWG
  6
CONTINUOUS
100
AcDbLine
 10
589.951736
 20
919.854329
 30
-0.421745
 11
588.025393
 21
919.625325
 31
-0.421745
  0
LINE
  5
2BB
100
AcDbEntity
  8
025-DWG
  6
CONTINUOUS
100
AcDbLine
 10
587.645543
 20
920.350152
 30
-0.421745
 11
587.646685
 21
919.607194
 31
-0.421745
  0
LWPOLYLINE
  5
2BC
100
AcDbEntity
  8
025-DWG
  6
CONTINUOUS
100
AcDbPolyline
 90
        9
 70
   128
 43
0.0
 38
-0.421745
 10
587.646685
 20
919.607194
 10
587.630498
 20
919.434929
 10
587.58502
 20
919.267834
 10
587.511618
 20
919.110922
 10
587.412494
 20
918.968903
 10
587.290622
 20
918.846039
 10
587.14966
 20
918.746017
 10
586.993837
 20
918.671837
 10
586.827831
 20
918.625728
  0
LWPOLYLINE
  5
2BD
100
AcDbEntity
  8
025-DWG
  6
CONTINUOUS
100
AcDbPolyline
 90
        9
 70
   128
 43
0.0
 38
-0.421745
 10
588.025393
 20
919.625325
 10
588.027719
 20
919.452723
 10
588.011372
 20
919.28562
 10
587.976848
 20
919.129082
 10
587.925195
 20
918.987855
 10
587.857977
 20
918.866222
 10
587.777234
 20
918.767871
 10
587.685413
 20
918.695784
 10
587.585299
 20
918.652147
  0
LWPOLYLINE
  5
2BE
100
AcDbEntity
  8
025-DWG
  6
CONTINUOUS
100
AcDbPolyline
 90
        3
 70
   128
 43
0.0
 38
-0.421745
 10
587.585299
 20
918.652147
 10
589.156414
 20
918.837839
 10
589.511682
 20
918.880698
  0
LWPOLYLINE
  5
2BF
100
AcDbEntity
  8
025-DWG
  6
CONTINUOUS
100
AcDbPolyline
 90
        9
 70
   128
 43
0.0
 38
-0.421745
 10
588.239499
 20
921.270022
 10
588.221803
 20
921.099912
 10
588.175523
 20
920.934823
 10
588.102024
 20
920.779627
 10
588.003475
 20
920.638906
 10
587.882786
 20
920.516811
 10
587.743518
 20
920.416947
 10
587.589782
 20
920.342262
 10
587.426116
 20
920.29496
  0
ARC
  5
2C0
100
AcDbEntity
  8
025-DWG
  6
CONTINUOUS
100
AcDbCircle
 10
587.25332
 20
921.270022
 30
-0.421745
 40
1.0
100
AcDbArc
 50
289.815168
 51
359.887421
  0
LWPOLYLINE
  5
2C1
100
AcDbEntity
  8
025-DWG
  6
CONTINUOUS
100
AcDbPolyline
 90
        3
 70
   128
 43
0.0
 38
-0.421745
 10
587.646685
 20
919.607194
 10
586.993547
 20
919.982672
 10
586.918226
 20
920.03344
  0
LWPOLYLINE
  5
2C2
100
AcDbEntity
  8
025-DWG
  6
CONTINUOUS
100
AcDbPolyline
 90
        4
 70
   128
 43
0.0
 38
-0.421745
 10
588.255581
 20
929.424149
 10
588.263651
 20
929.423782
 10
588.269221
 20
929.423217
 10
588.264996
 20
929.423058
  0
LWPOLYLINE
  5
2C3
100
AcDbEntity
  8
025-DWG
  6
CONTINUOUS
100
AcDbPolyline
 90
        5
 70
   128
 43
0.0
 38
-0.421745
 10
589.942296
 20
929.419688
 10
590.169103
 20
929.421277
 10
590.301169
 20
929.423217
 10
590.318543
 20
929.423782
 10
590.325273
 20
929.424149
  0
LINE
  5
2C4
100
AcDbEntity
  8
025-DWG
  6
CONTINUOUS
100
AcDbLine
 10
589.942296
 20
929.419688
 30
-0.421745
 11
589.942268
 21
929.419688
 31
-0.421745
  0
LINE
  5
2C5
100
AcDbEntity
  8
025-DWG
  6
CONTINUOUS
100
AcDbLine
 10
589.942268
 20
929.419688
 30
-0.421745
 11
588.271712
 21
929.419688
 31
-0.421745
  0
LWPOLYLINE
  5
2C6
100
AcDbEntity
  8
025-DWG
  6
CONTINUOUS
100
AcDbPolyline
 90
        7
 70
   128
 43
0.0
 38
-0.421745
 10
583.784864
 20
940.563876
 10
583.106618
 20
940.024072
 10
582.520935
 20
939.336363
 10
582.144277
 20
938.669513
 10
581.892773
 20
937.912407
 10
581.830984
 20
937.539189
 10
581.809521
 20
937.15672
  0
LINE
  5
2C7
100
AcDbEntity
  8
025-DWG
  6
CONTINUOUS
100
AcDbLine
 10
582.559729
 20
937.15672
 30
-0.421745
 11
581.809521
 21
937.15672
 31
-0.421745
  0
LWPOLYLINE
  5
2C8
100
AcDbEntity
  8
025-DWG
  6
CONTINUOUS
100
AcDbPolyline
 90
        6
 70
   128
 43
0.0
 38
-0.421745
 10
582.559729
 20
937.15672
 10
583.690864
 20
938.230899
 10
584.746463
 20
939.250544
 10
585.72643
 20
940.210826
 10
586.628152
 20
941.104374
 10
586.872861
 20
941.348181
  0
LWPOLYLINE
  5
2C9
100
AcDbEntity
  8
025-DWG
  6
CONTINUOUS
100
AcDbPolyline
 90
        6
 70
   128
 43
0.0
 38
-0.421745
 10
582.559729
 20
937.15672
 10
582.604366
 20
937.561835
 10
582.712501
 20
937.963008
 10
582.931994
 20
938.45161
 10
583.233065
 20
938.906125
 10
583.603233
 20
939.309185
  0
LINE
  5
2CA
100
AcDbEntity
  8
035-DWG
  6
CONTINUOUS
100
AcDbLine
 10
592.358097
 20
945.104108
 30
-0.421745
 11
584.126081
 21
939.724247
 31
-0.421745
  0
LWPOLYLINE
  5
2CB
100
AcDbEntity
  8
025-DWG
  6
CONTINUOUS
100
AcDbPolyline
 90
        9
 70
   128
 43
0.0
 38
-0.421745
 10
584.111903
 20
939.722183
 10
584.137709
 20
939.743864
 10
584.14303
 20
939.795502
 10
584.12767
 20
939.875213
 10
584.092191
 20
939.980083
 10
584.037889
 20
940.106281
 10
583.966748
 20
940.249196
 10
583.881367
 20
940.403608
 10
583.784864
 20
940.563876
  0
LWPOLYLINE
  5
2CC
100
AcDbEntity
  8
035-DWG
  6
CONTINUOUS
100
AcDbPolyline
 90
        3
 70
   128
 43
0.0
 38
-0.421745
 10
586.850503
 20
941.504735
 10
586.871286
 20
941.354793
 10
586.872861
 20
941.348181
  0
LINE
  5
2CD
100
AcDbEntity
  8
035-DWG
  6
CONTINUOUS
100
AcDbLine
 10
586.872861
 20
941.348181
 30
-0.421745
 11
586.872861
 21
941.519347
 31
-0.421745
  0
LWPOLYLINE
  5
2CE
100
AcDbEntity
  8
035-DWG
  6
CONTINUOUS
100
AcDbPolyline
 90
        3
 70
   128
 43
0.0
 38
-0.421745
 10
586.872861
 20
941.348181
 10
586.871906
 20
941.359224
 10
586.870946
 20
941.518096
  0
LINE
  5
2CF
100
AcDbEntity
  8
035-DWG
  6
CONTINUOUS
100
AcDbLine
 10
570.970203
 20
967.091462
 30
-0.421745
 11
608.303437
 21
971.027813
 31
-0.421745
  0
LWPOLYLINE
  5
2D0
100
AcDbEntity
  8
025-DWG
  6
CONTINUOUS
100
AcDbPolyline
 90
        3
 70
   128
 43
0.0
 38
-0.421745
 10
621.748433
 20
970.121359
 10
593.473777
 20
966.294058
 10
565.371331
 20
962.326207
  0
LWPOLYLINE
  5
2D1
100
AcDbEntity
  8
025-DWG
  6
CONTINUOUS
100
AcDbPolyline
 90
        3
 70
   128
 43
0.0
 38
-0.421745
 10
565.072236
 20
961.27799
 10
593.468927
 20
965.283629
 10
622.041625
 20
969.146422
  0
LINE
  5
2D2
100
AcDbEntity
  8
035-DWG
100
AcDbLine
 10
585.85
 20
994.669091
 30
-0.421745
 11
585.85
 21
1000.669091
 31
-0.421745
  0
LWPOLYLINE
  5
2D3
100
AcDbEntity
  8
035-DWG
  6
CONTINUOUS
100
AcDbPolyline
 90
        5
 70
   128
 43
0.0
 38
-0.421745
 10
565.371331
 20
962.326207
 10
566.950864
 20
963.664807
 10
568.412093
 20
964.90721
 10
569.754171
 20
966.051697
 10
570.970203
 20
967.091462
  0
LWPOLYLINE
  5
2D4
100
AcDbEntity
  8
035-DWG
  6
CONTINUOUS
100
AcDbPolyline
 90
        6
 70
   128
 43
0.0
 38
-0.421745
 10
565.072236
 20
961.27799
 10
565.089128
 20
961.574677
 10
565.136452
 20
961.845829
 10
565.217761
 20
962.095823
 10
565.33514
 20
962.290685
 10
565.371331
 20
962.326207
  0
LINE
  5
2D5
100
AcDbEntity
  8
035-DWG
100
AcDbLine
 10
575.7
 20
975.355427
 30
-0.421745
 11
575.7
 21
994.669091
 31
-0.421745
  0
LINE
  5
2D6
100
AcDbEntity
  8
035-DWG
100
AcDbLine
 10
575.2
 20
970.355427
 30
-0.421745
 11
575.7
 21
970.355427
 31
-0.421745
  0
LINE
  5
2D7
100
AcDbEntity
  8
035-DWG
100
AcDbLine
 10
575.2
 20
975.355427
 30
-0.421745
 11
575.7
 21
975.355427
 31
-0.421745
  0
ARC
  5
2D8
100
AcDbEntity
  8
035-DWG
100
AcDbCircle
 10
575.2
 20
972.855427
 30
-0.421745
 40
2.5
100
AcDbArc
 50
90.0
 51
270.0
  0
LINE
  5
2D9
100
AcDbEntity
  8
035-DWG
100
AcDbLine
 10
575.7
 20
967.590163
 30
-0.421745
 11
575.7
 21
970.355427
 31
-0.421745
  0
LWPOLYLINE
  5
2DA
100
AcDbEntity
  8
025-DWG
  6
CONTINUOUS
100
AcDbPolyline
 90
        8
 70
   128
 43
0.0
 38
-0.421745
 10
623.971123
 20
969.490511
 10
625.234782
 20
970.864503
 10
626.31662
 20
972.040791
 10
627.211543
 20
973.013843
 10
627.91446
 20
973.778123
 10
628.433512
 20
974.342486
 10
628.744433
 20
974.680549
 10
628.843904
 20
974.788702
  0
ARC
  5
2DB
100
AcDbEntity
  8
035-DWG
  6
CONTINUOUS
100
AcDbCircle
 10
627.846743
 20
974.791789
 30
-0.421745
 40
1.0
100
AcDbArc
 50
359.828216
 51
95.149226
  0
LWPOLYLINE
  5
2DC
100
AcDbEntity
  8
035-DWG
  6
CONTINUOUS
100
AcDbPolyline
 90
       14
 70
   128
 43
0.0
 38
-0.421745
 10
628.591568
 20
968.388072
 10
628.58166
 20
968.377012
 10
628.507427
 20
968.294143
 10
628.360692
 20
968.130327
 10
628.141449
 20
967.885543
 10
627.849669
 20
967.559746
 10
627.485192
 20
967.152747
 10
627.047757
 20
966.664238
 10
626.53689
 20
966.093679
 10
625.952786
 20
965.441262
 10
625.298684
 20
964.710569
 10
624.567872
 20
963.894067
 10
623.761694
 20
962.993212
 10
623.732929
 20
962.961063
  0
LWPOLYLINE
  5
2DD
100
AcDbEntity
  8
025-DWG
  6
CONTINUOUS
100
AcDbPolyline
 90
        8
 70
   128
 43
0.0
 38
-0.421745
 10
628.840087
 20
969.047941
 10
628.756282
 20
968.954758
 10
628.463101
 20
968.628789
 10
627.968624
 20
968.078966
 10
627.275732
 20
967.308425
 10
626.370217
 20
966.301282
 10
625.266636
 20
965.07359
 10
623.971123
 20
963.632025
  0
LWPOLYLINE
  5
2DE
100
AcDbEntity
  8
025-DWG
  6
CONTINUOUS
100
AcDbPolyline
 90
        9
 70
   128
 43
0.0
 38
-0.421745
 10
617.128736
 20
961.303881
 10
617.154113
 20
961.326093
 10
617.159117
 20
961.378102
 10
617.143566
 20
961.458017
 10
617.108025
 20
961.562934
 10
617.053786
 20
961.689039
 10
616.982822
 20
961.831747
 10
616.897711
 20
961.985872
 10
616.801547
 20
962.145811
  0
LWPOLYLINE
  5
2DF
100
AcDbEntity
  8
025-DWG
  6
CONTINUOUS
100
AcDbPolyline
 90
        5
 70
   128
 43
0.0
 38
-0.421745
 10
618.601951
 20
962.821531
 10
617.886195
 20
962.660948
 10
617.187042
 20
962.371006
 10
616.991812
 20
962.263409
 10
616.801547
 20
962.145811
  0
LWPOLYLINE
  5
2E0
100
AcDbEntity
  8
025-DWG
  6
CONTINUOUS
100
AcDbPolyline
 90
        3
 70
   128
 43
0.0
 38
-0.421745
 10
618.479197
 20
961.848337
 10
618.527072
 20
961.830417
 10
618.526938
 20
961.830399
  0
LWPOLYLINE
  5
2E1
100
AcDbEntity
  8
025-DWG
  6
CONTINUOUS
100
AcDbPolyline
 90
        8
 70
   128
 43
0.0
 38
-0.421745
 10
618.526938
 20
961.830399
 10
618.568511
 20
961.860451
 10
618.601509
 20
961.936984
 10
618.624469
 20
962.056315
 10
618.636282
 20
962.212669
 10
618.636375
 20
962.398481
 10
618.624743
 20
962.604762
 10
618.601951
 20
962.821531
  0
LWPOLYLINE
  5
2E2
100
AcDbEntity
  8
035-DWG
  6
CONTINUOUS
100
AcDbPolyline
 90
        5
 70
   128
 43
0.0
 38
-0.421745
 10
618.529063
 20
961.817928
 10
618.187687
 20
961.765719
 10
617.629434
 20
961.574589
 10
617.096082
 20
961.27905
 10
617.07378
 20
961.26302
  0
LWPOLYLINE
  5
2E3
100
AcDbEntity
  8
035-DWG
  6
CONTINUOUS
100
AcDbPolyline
 90
        5
 70
   128
 43
0.0
 38
-0.421745
 10
618.527935
 20
961.817778
 10
618.186489
 20
961.765555
 10
617.628253
 20
961.574467
 10
617.095133
 20
961.279021
 10
617.072757
 20
961.262936
  0
LWPOLYLINE
  5
2E4
100
AcDbEntity
  8
035-DWG
  6
CONTINUOUS
100
AcDbPolyline
 90
        5
 70
   128
 43
0.0
 38
-0.421745
 10
608.303437
 20
971.027813
 10
609.27451
 20
971.156803
 10
610.095553
 20
971.320344
 10
610.686048
 20
971.500692
 10
610.952287
 20
971.652968
  0
LWPOLYLINE
  5
2E5
100
AcDbEntity
  8
035-DWG
  6
CONTINUOUS
100
AcDbPolyline
 90
        9
 70
   128
 43
0.0
 38
-0.421745
 10
613.730234
 20
974.560138
 10
613.645666
 20
974.546523
 10
613.562573
 20
974.525722
 10
613.481565
 20
974.497885
 10
613.403236
 20
974.463219
 10
613.328161
 20
974.421976
 10
613.256892
 20
974.37446
 10
613.18995
 20
974.321018
 10
613.12824
 20
974.262472
  0
LWPOLYLINE
  5
2E6
100
AcDbEntity
  8
035-DWG
  6
CONTINUOUS
100
AcDbPolyline
 90
       11
 70
   128
 43
0.0
 38
-0.421745
 10
610.355184
 20
971.399641
 10
610.492681
 20
971.541483
 10
611.094983
 20
972.163019
 10
611.615773
 20
972.70058
 10
612.05531
 20
973.154359
 10
612.422104
 20
973.5331
 10
612.712144
 20
973.832637
 10
612.925756
 20
974.053279
 10
613.063178
 20
974.195247
 10
613.124547
 20
974.258655
 10
613.127827
 20
974.262045
  0
LWPOLYLINE
  5
2E7
100
AcDbEntity
  8
035-DWG
  6
CONTINUOUS
100
AcDbPolyline
 90
        7
 70
   128
 43
0.0
 38
-0.421745
 10
610.952287
 20
971.652968
 10
611.88514
 20
972.61958
 10
612.633433
 20
973.395262
 10
613.196956
 20
973.979586
 10
613.567701
 20
974.364104
 10
613.745424
 20
974.548448
 10
613.735709
 20
974.538372
  0
LWPOLYLINE
  5
2E8
100
AcDbEntity
  8
025-DWG
  6
CONTINUOUS
100
AcDbPolyline
 90
        9
 70
   128
 43
0.0
 38
-0.421745
 10
627.75673
 20
975.784851
 10
627.758853
 20
975.787179
 10
627.650354
 20
975.668219
 10
627.345709
 20
975.334203
 10
626.847013
 20
974.787426
 10
626.156979
 20
974.030862
 10
625.262386
 20
973.050013
 10
624.176861
 20
971.859818
 10
622.906043
 20
970.466457
  0
LWPOLYLINE
  5
2E9
100
AcDbEntity
  8
025-DWG
  6
CONTINUOUS
100
AcDbPolyline
 90
        9
 70
   128
 43
0.0
 38
-0.421745
 10
621.748433
 20
970.121359
 10
621.788921
 20
970.075413
 10
621.830752
 20
970.001633
 10
621.872672
 20
969.902228
 10
621.913425
 20
969.780178
 10
621.95179
 20
969.63914
 10
621.986618
 20
969.483338
 10
622.016865
 20
969.317442
 10
622.041625
 20
969.146422
  0
LWPOLYLINE
  5
2EA
100
AcDbEntity
  8
025-DWG
  6
CONTINUOUS
100
AcDbPolyline
 90
        9
 70
   128
 43
0.0
 38
-0.421745
 10
622.906043
 20
970.466457
 10
623.103561
 20
970.455159
 10
623.29653
 20
970.404719
 10
623.477118
 20
970.317182
 10
623.637998
 20
970.196102
 10
623.772642
 20
970.04639
 10
623.875586
 20
969.874122
 10
623.942653
 20
969.686288
 10
623.971123
 20
969.490511
  0
LWPOLYLINE
  5
2EB
100
AcDbEntity
  8
025-DWG
  6
CONTINUOUS
100
AcDbPolyline
 90
        5
 70
   128
 43
0.0
 38
-0.421745
 10
622.906043
 20
970.466457
 10
622.716969
 20
970.350199
 10
622.374648
 20
970.238754
 10
621.920082
 20
970.146379
 10
621.748433
 20
970.121359
  0
LWPOLYLINE
  5
2EC
100
AcDbEntity
  8
025-DWG
  6
CONTINUOUS
100
AcDbPolyline
 90
        5
 70
   128
 43
0.0
 38
-0.421745
 10
622.041625
 20
969.146422
 10
622.823382
 20
969.226692
 10
623.456067
 20
969.329003
 10
623.872452
 20
969.442051
 10
623.971123
 20
969.490511
  0
LWPOLYLINE
  5
2ED
100
AcDbEntity
  8
025-DWG
  6
CONTINUOUS
100
AcDbPolyline
 90
        9
 70
   128
 43
0.0
 38
-0.421745
 10
622.041625
 20
963.281722
 10
622.064241
 20
963.065313
 10
622.075744
 20
962.859337
 10
622.075579
 20
962.673725
 10
622.063753
 20
962.517426
 10
622.040838
 20
962.397975
 10
622.007938
 20
962.321131
 10
621.966638
 20
962.290599
 10
621.963171
 20
962.290226
  0
LWPOLYLINE
  5
2EE
100
AcDbEntity
  8
025-DWG
  6
CONTINUOUS
100
AcDbPolyline
 90
        5
 70
   128
 43
0.0
 38
-0.421745
 10
623.971123
 20
963.632025
 10
623.961621
 20
963.446726
 10
623.916813
 20
963.268171
 10
623.838331
 20
963.102856
 10
623.739428
 20
962.968329
  0
LINE
  5
2EF
100
AcDbEntity
  8
025-DWG
  6
CONTINUOUS
100
AcDbLine
 10
621.963171
 20
962.290226
 30
-0.421745
 11
621.918931
 21
962.307851
 31
-0.421745
  0
LINE
  5
2F0
100
AcDbEntity
  8
035-DWG
  6
CONTINUOUS
100
AcDbLine
 10
623.762722
 20
962.994361
 30
-0.421745
 11
623.73323
 21
962.961399
 31
-0.421745
  0
LWPOLYLINE
  5
2F1
100
AcDbEntity
  8
035-DWG
  6
CONTINUOUS
100
AcDbPolyline
 90
        8
 70
   128
 43
0.0
 38
-0.421745
 10
623.735357
 20
962.971418
 10
623.694767
 20
962.92074
 10
623.507626
 20
962.764502
 10
623.286439
 20
962.636058
 10
622.983217
 20
962.513091
 10
622.587428
 20
962.402126
 10
622.177761
 20
962.321845
 10
621.962672
 20
962.293618
  0
LWPOLYLINE
  5
2F2
100
AcDbEntity
  8
025-DWG
  6
CONTINUOUS
100
AcDbPolyline
 90
        5
 70
   128
 43
0.0
 38
-0.421745
 10
623.971123
 20
963.632025
 10
623.663306
 20
963.51558
 10
623.109249
 20
963.404208
 10
622.372192
 20
963.311314
 10
622.041625
 20
963.281722
  0
LINE
  5
2F3
100
AcDbEntity
  8
025-DWG
  6
CONTINUOUS
100
AcDbLine
 10
622.041625
 20
969.146422
 30
-0.421745
 11
622.041625
 21
963.281722
 31
-0.421745
  0
LINE
  5
2F4
100
AcDbEntity
  8
025-DWG
  6
CONTINUOUS
100
AcDbLine
 10
623.971123
 20
963.632025
 30
-0.421745
 11
623.971123
 21
969.490511
 31
-0.421745
  0
LINE
  5
2F5
100
AcDbEntity
  8
035-DWG
  6
CONTINUOUS
100
AcDbLine
 10
613.73374
 20
974.560881
 30
-0.421745
 11
627.75648
 21
975.787712
 31
-0.421745
  0
LINE
  5
2F6
100
AcDbEntity
  8
025-DWG
  6
CONTINUOUS
100
AcDbLine
 10
622.041625
 20
963.281722
 30
-0.421745
 11
618.601951
 21
962.821531
 31
-0.421745
  0
LINE
  5
2F7
100
AcDbEntity
  8
035-DWG
  6
CONTINUOUS
100
AcDbLine
 10
618.479197
 20
961.848337
 30
-0.421745
 11
621.918931
 21
962.307851
 31
-0.421745
  0
LINE
  5
2F8
100
AcDbEntity
  8
035-DWG
  6
CONTINUOUS
100
AcDbLine
 10
628.846743
 20
974.788668
 30
-0.421745
 11
628.846743
 21
969.047973
 31
-0.421745
  0
LWPOLYLINE
  5
2F9
100
AcDbEntity
  8
035-DWG
  6
CONTINUOUS
100
AcDbPolyline
 90
        9
 70
   128
 43
0.0
 38
-0.421745
 10
628.591627
 20
968.388138
 10
628.648734
 20
968.457996
 10
628.699358
 20
968.532792
 10
628.743027
 20
968.611851
 10
628.779385
 20
968.694527
 10
628.808135
 20
968.780147
 10
628.829042
 20
968.868011
 10
628.841937
 20
968.957404
 10
628.846713
 20
969.047595
  0
LINE
  5
2FA
100
AcDbEntity
  8
035-DWG
100
AcDbLine
 10
387.9
 20
837.7
 30
0.0
 11
397.9
 21
837.7
 31
0.0
  0
LINE
  5
2FB
100
AcDbEntity
  8
025-DWG
100
AcDbLine
 10
412.584256
 20
836.226177
 30
0.0
 11
373.215744
 21
836.226177
 31
0.0
  0
LINE
  5
2FC
100
AcDbEntity
  8
035-DWG
100
AcDbLine
 10
373.97183
 20
837.2
 30
0.0
 11
411.82817
 21
837.2
 31
0.0
  0
LWPOLYLINE
  5
2FD
100
AcDbEntity
  8
025-DWG
100
AcDbPolyline
 90
        9
 70
     0
 43
0.0
 10
373.021262
 20
826.406612
 10
377.138748
 20
826.741519
 10
381.975247
 20
826.992285
 10
387.310121
 20
827.147472
 10
392.9
 20
827.2
 10
398.489879
 20
827.147472
 10
403.824753
 20
826.992285
 10
408.661252
 20
826.741519
 10
412.778738
 20
826.406612
  0
LWPOLYLINE
  5
2FE
100
AcDbEntity
  8
035-DWG
100
AcDbPolyline
 90
        9
 70
     0
 43
0.0
 10
374.416242
 20
826.301053
 10
378.244786
 20
826.612458
 10
382.741886
 20
826.845628
 10
387.702388
 20
826.989924
 10
392.9
 20
827.038766
 10
398.097612
 20
826.989924
 10
403.058114
 20
826.845628
 10
407.555214
 20
826.612458
 10
411.383758
 20
826.301053
  0
LINE
  5
2FF
100
AcDbEntity
  8
035-DWG
100
AcDbLine
 10
387.9
 20
837.2
 30
0.0
 11
387.9
 21
837.7
 31
0.0
  0
LINE
  5
300
100
AcDbEntity
  8
035-DWG
100
AcDbLine
 10
373.611424
 20
837.2
 30
0.0
 11
373.97183
 21
837.2
 31
0.0
  0
LINE
  5
301
100
AcDbEntity
  8
025-DWG
100
AcDbLine
 10
373.215744
 20
836.226177
 30
0.0
 11
372.619218
 21
836.226177
 31
0.0
  0
LWPOLYLINE
  5
302
100
AcDbEntity
  8
035-DWG
100
AcDbPolyline
 90
        3
 70
     0
 43
0.0
 10
374.193488
 20
826.25737
 10
374.267748
 20
826.28066
 10
374.416242
 20
826.301053
  0
LINE
  5
303
100
AcDbEntity
  8
025-DWG
100
AcDbLine
 10
373.215744
 20
836.226177
 30
0.0
 11
373.021262
 21
826.406612
 31
0.0
  0
ELLIPSE
  5
304
100
AcDbEntity
  8
025-DWG
100
AcDbEllipse
 10
373.97183
 20
836.2
 30
0.0
 11
0.0
 21
1.0
 31
0.0
210
0.0
220
0.0
230
1.0
 40
0.756345
 41
0.0
 42
1.54461638801498
  0
ELLIPSE
  5
305
100
AcDbEntity
  8
025-DWG
100
AcDbEllipse
 10
373.611424
 20
836.2
 30
0.0
 11
0.0
 21
1.0
 31
0.0
210
0.0
220
0.0
230
1.0
 40
0.992546
 41
0.0000000000000036
 42
1.544616388014983
  0
LWPOLYLINE
  5
306
100
AcDbEntity
  8
025-DWG
100
AcDbPolyline
 90
        3
 70
     0
 43
0.0
 10
371.814076
 20
835.726348
 10
371.717977
 20
835.655067
 10
371.529062
 20
835.482978
  0
LWPOLYLINE
  5
307
100
AcDbEntity
  8
025-DWG
100
AcDbPolyline
 90
        4
 70
     0
 43
0.0
 10
371.589997
 20
835.482978
 10
371.713188
 20
835.604663
 10
371.795207
 20
835.693743
 10
371.814076
 20
835.726348
  0
LWPOLYLINE
  5
308
100
AcDbEntity
  8
025-DWG
100
AcDbPolyline
 90
        4
 70
     0
 43
0.0
 10
371.935945
 20
835.726348
 10
371.886609
 20
835.693743
 10
371.782287
 20
835.604663
 10
371.650931
 20
835.482978
  0
LWPOLYLINE
  5
309
100
AcDbEntity
  8
025-DWG
100
AcDbPolyline
 90
        7
 70
     0
 43
0.0
 10
371.772801
 20
835.482978
 10
371.641445
 20
835.361293
 10
371.537123
 20
835.272214
 10
371.487786
 20
835.239608
 10
371.506655
 20
835.272214
 10
371.588674
 20
835.361293
 10
371.711866
 20
835.482978
  0
LWPOLYLINE
  5
30A
100
AcDbEntity
  8
025-DWG
100
AcDbPolyline
 90
        3
 70
     0
 43
0.0
 10
371.711866
 20
835.482978
 10
371.882934
 20
835.655067
 10
371.935945
 20
835.726348
  0
LWPOLYLINE
  5
30B
100
AcDbEntity
  8
025-DWG
100
AcDbPolyline
 90
        6
 70
     0
 43
0.0
 10
371.89467
 20
835.482978
 10
371.739232
 20
835.339929
 10
371.631529
 20
835.251519
 10
371.612699
 20
835.251519
 10
371.689935
 20
835.339929
 10
371.833735
 20
835.482978
  0
LWPOLYLINE
  5
30C
100
AcDbEntity
  8
025-DWG
100
AcDbPolyline
 90
        6
 70
     0
 43
0.0
 10
372.016539
 20
835.482978
 10
371.861102
 20
835.339929
 10
371.753398
 20
835.251519
 10
371.734568
 20
835.251519
 10
371.811804
 20
835.339929
 10
371.955605
 20
835.482978
  0
LINE
  5
30D
100
AcDbEntity
  8
025-DWG
100
AcDbLine
 10
371.692207
 20
835.726348
 30
0.0
 11
371.814076
 21
835.726348
 31
0.0
  0
LINE
  5
30E
100
AcDbEntity
  8
025-DWG
100
AcDbLine
 10
371.407193
 20
835.482978
 30
0.0
 11
371.405615
 21
835.422291
 31
0.0
  0
LINE
  5
30F
100
AcDbEntity
  8
025-DWG
100
AcDbLine
 10
371.285323
 20
835.482978
 30
0.0
 11
371.283746
 21
835.422291
 31
0.0
  0
LINE
  5
310
100
AcDbEntity
  8
025-DWG
100
AcDbLine
 10
371.163454
 20
835.482978
 30
0.0
 11
371.161877
 21
835.422291
 31
0.0
  0
LINE
  5
311
100
AcDbEntity
  8
025-DWG
100
AcDbLine
 10
371.041584
 20
835.482978
 30
0.0
 11
371.040007
 21
835.422291
 31
0.0
  0
LINE
  5
312
100
AcDbEntity
  8
025-DWG
100
AcDbLine
 10
370.919715
 20
835.482978
 30
0.0
 11
370.918138
 21
835.422291
 31
0.0
  0
LINE
  5
313
100
AcDbEntity
  8
025-DWG
100
AcDbLine
 10
370.797846
 20
835.482978
 30
0.0
 11
370.796268
 21
835.422291
 31
0.0
  0
LINE
  5
314
100
AcDbEntity
  8
025-DWG
100
AcDbLine
 10
371.529062
 20
835.482978
 30
0.0
 11
371.527485
 21
835.422291
 31
0.0
  0
LINE
  5
315
100
AcDbEntity
  8
025-DWG
100
AcDbLine
 10
371.650931
 20
835.482978
 30
0.0
 11
371.649354
 21
835.422291
 31
0.0
  0
LWPOLYLINE
  5
316
100
AcDbEntity
  8
025-DWG
100
AcDbPolyline
 90
        3
 70
     0
 43
0.0
 10
371.08286
 20
835.726348
 10
370.986761
 20
835.655067
 10
370.797846
 20
835.482978
  0
LWPOLYLINE
  5
317
100
AcDbEntity
  8
035-DWG
100
AcDbPolyline
 90
        6
 70
     0
 43
0.0
 10
370.797846
 20
835.482978
 10
370.654294
 20
835.350429
 10
370.54723
 20
835.260649
 10
370.511199
 20
835.242604
 10
370.557827
 20
835.302119
 10
370.672068
 20
835.419989
  0
LINE
  5
318
100
AcDbEntity
  8
035-DWG
100
AcDbLine
 10
370.672068
 20
835.419989
 30
0.0
 11
370.985252
 21
835.729343
 31
0.0
  0
LWPOLYLINE
  5
319
100
AcDbEntity
  8
025-DWG
100
AcDbPolyline
 90
        3
 70
     0
 43
0.0
 10
371.204729
 20
835.726348
 10
371.108631
 20
835.655067
 10
370.919715
 20
835.482978
  0
LWPOLYLINE
  5
31A
100
AcDbEntity
  8
025-DWG
100
AcDbPolyline
 90
        7
 70
     0
 43
0.0
 10
370.919715
 20
835.482978
 10
370.78836
 20
835.361293
 10
370.684037
 20
835.272214
 10
370.634701
 20
835.239608
 10
370.65357
 20
835.272214
 10
370.735589
 20
835.361293
 10
370.85878
 20
835.482978
  0
LWPOLYLINE
  5
31B
100
AcDbEntity
  8
025-DWG
100
AcDbPolyline
 90
        4
 70
     0
 43
0.0
 10
370.85878
 20
835.482978
 10
370.981972
 20
835.604663
 10
371.063991
 20
835.693743
 10
371.08286
 20
835.726348
  0
LWPOLYLINE
  5
31C
100
AcDbEntity
  8
025-DWG
100
AcDbPolyline
 90
        3
 70
     0
 43
0.0
 10
371.326599
 20
835.726348
 10
371.2305
 20
835.655067
 10
371.041584
 20
835.482978
  0
LWPOLYLINE
  5
31D
100
AcDbEntity
  8
025-DWG
100
AcDbPolyline
 90
        7
 70
     0
 43
0.0
 10
371.041584
 20
835.482978
 10
370.910229
 20
835.361293
 10
370.805907
 20
835.272214
 10
370.75657
 20
835.239608
 10
370.775439
 20
835.272214
 10
370.857458
 20
835.361293
 10
370.98065
 20
835.482978
  0
LWPOLYLINE
  5
31E
100
AcDbEntity
  8
025-DWG
100
AcDbPolyline
 90
        4
 70
     0
 43
0.0
 10
370.98065
 20
835.482978
 10
371.103841
 20
835.604663
 10
371.18586
 20
835.693743
 10
371.204729
 20
835.726348
  0
LWPOLYLINE
  5
31F
100
AcDbEntity
  8
025-DWG
100
AcDbPolyline
 90
        3
 70
     0
 43
0.0
 10
371.448468
 20
835.726348
 10
371.352369
 20
835.655067
 10
371.163454
 20
835.482978
  0
LWPOLYLINE
  5
320
100
AcDbEntity
  8
025-DWG
100
AcDbPolyline
 90
        6
 70
     0
 43
0.0
 10
371.163454
 20
835.482978
 10
371.008016
 20
835.339929
 10
370.900313
 20
835.251519
 10
370.881483
 20
835.251519
 10
370.958719
 20
835.339929
 10
371.102519
 20
835.482978
  0
LWPOLYLINE
  5
321
100
AcDbEntity
  8
025-DWG
100
AcDbPolyline
 90
        4
 70
     0
 43
0.0
 10
371.102519
 20
835.482978
 10
371.225711
 20
835.604663
 10
371.30773
 20
835.693743
 10
371.326599
 20
835.726348
  0
LWPOLYLINE
  5
322
100
AcDbEntity
  8
025-DWG
100
AcDbPolyline
 90
        3
 70
     0
 43
0.0
 10
371.570337
 20
835.726348
 10
371.474239
 20
835.655067
 10
371.285323
 20
835.482978
  0
LWPOLYLINE
  5
323
100
AcDbEntity
  8
025-DWG
100
AcDbPolyline
 90
        6
 70
     0
 43
0.0
 10
371.285323
 20
835.482978
 10
371.129885
 20
835.339929
 10
371.022182
 20
835.251519
 10
371.003352
 20
835.251519
 10
371.080588
 20
835.339929
 10
371.224388
 20
835.482978
  0
LWPOLYLINE
  5
324
100
AcDbEntity
  8
025-DWG
100
AcDbPolyline
 90
        3
 70
     0
 43
0.0
 10
371.224388
 20
835.482978
 10
371.395457
 20
835.655067
 10
371.448468
 20
835.726348
  0
LWPOLYLINE
  5
325
100
AcDbEntity
  8
025-DWG
100
AcDbPolyline
 90
        3
 70
     0
 43
0.0
 10
371.692207
 20
835.726348
 10
371.596108
 20
835.655067
 10
371.407193
 20
835.482978
  0
LWPOLYLINE
  5
326
100
AcDbEntity
  8
025-DWG
100
AcDbPolyline
 90
        6
 70
     0
 43
0.0
 10
371.407193
 20
835.482978
 10
371.251755
 20
835.339929
 10
371.144052
 20
835.251519
 10
371.125222
 20
835.251519
 10
371.202458
 20
835.339929
 10
371.346258
 20
835.482978
  0
LWPOLYLINE
  5
327
100
AcDbEntity
  8
025-DWG
100
AcDbPolyline
 90
        4
 70
     0
 43
0.0
 10
371.346258
 20
835.482978
 10
371.469449
 20
835.604663
 10
371.551468
 20
835.693743
 10
371.570337
 20
835.726348
  0
LWPOLYLINE
  5
328
100
AcDbEntity
  8
025-DWG
100
AcDbPolyline
 90
        6
 70
     0
 43
0.0
 10
371.529062
 20
835.482978
 10
371.373624
 20
835.339929
 10
371.265921
 20
835.251519
 10
371.247091
 20
835.251519
 10
371.324327
 20
835.339929
 10
371.468127
 20
835.482978
  0
LWPOLYLINE
  5
329
100
AcDbEntity
  8
025-DWG
100
AcDbPolyline
 90
        3
 70
     0
 43
0.0
 10
371.468127
 20
835.482978
 10
371.639195
 20
835.655067
 10
371.692207
 20
835.726348
  0
LWPOLYLINE
  5
32A
100
AcDbEntity
  8
025-DWG
100
AcDbPolyline
 90
        7
 70
     0
 43
0.0
 10
371.650931
 20
835.482978
 10
371.519576
 20
835.361293
 10
371.415253
 20
835.272214
 10
371.365917
 20
835.239608
 10
371.384786
 20
835.272214
 10
371.466805
 20
835.361293
 10
371.589997
 20
835.482978
  0
LINE
  5
32B
100
AcDbEntity
  8
025-DWG
100
AcDbLine
 10
371.570337
 20
835.726348
 30
0.0
 11
371.692207
 21
835.726348
 31
0.0
  0
LINE
  5
32C
100
AcDbEntity
  8
025-DWG
100
AcDbLine
 10
371.448468
 20
835.726348
 30
0.0
 11
371.570337
 21
835.726348
 31
0.0
  0
LINE
  5
32D
100
AcDbEntity
  8
025-DWG
100
AcDbLine
 10
371.326599
 20
835.726348
 30
0.0
 11
371.448468
 21
835.726348
 31
0.0
  0
LINE
  5
32E
100
AcDbEntity
  8
025-DWG
100
AcDbLine
 10
371.204729
 20
835.726348
 30
0.0
 11
371.326599
 21
835.726348
 31
0.0
  0
LINE
  5
32F
100
AcDbEntity
  8
025-DWG
100
AcDbLine
 10
371.08286
 20
835.726348
 30
0.0
 11
371.204729
 21
835.726348
 31
0.0
  0
LINE
  5
330
100
AcDbEntity
  8
025-DWG
100
AcDbLine
 10
370.988865
 20
835.726348
 30
0.0
 11
371.08286
 21
835.726348
 31
0.0
  0
ELLIPSE
  5
331
100
AcDbEntity
  8
035-DWG
100
AcDbEllipse
 10
371.498508
 20
836.213088
 30
0.0
 11
-0.4998166460733791
 21
0.0135395830053361
 31
0.0
210
0.0
220
0.0
230
1.0
 40
0.005752
 41
0.0000000000002556
 42
0.122133003078791
  0
LWPOLYLINE
  5
332
100
AcDbEntity
  8
025-DWG
100
AcDbPolyline
 90
        2
 70
     0
 43
0.0
 10
370.988865
 20
835.726348
 10
370.985252
 20
835.729343
  0
LWPOLYLINE
  5
333
100
AcDbEntity
  8
035-DWG
100
AcDbPolyline
 90
        2
 70
     0
 43
0.0
 10
370.998692
 20
836.226628
 10
370.98522
 20
835.729312
  0
LINE
  5
334
100
AcDbEntity
  8
025-DWG
100
AcDbLine
 10
371.772801
 20
835.482978
 30
0.0
 11
371.771223
 21
835.422291
 31
0.0
  0
LINE
  5
335
100
AcDbEntity
  8
025-DWG
100
AcDbLine
 10
371.89467
 20
835.482978
 30
0.0
 11
371.893093
 21
835.422291
 31
0.0
  0
LINE
  5
336
100
AcDbEntity
  8
025-DWG
100
AcDbLine
 10
372.016539
 20
835.482978
 30
0.0
 11
372.014962
 21
835.422291
 31
0.0
  0
LINE
  5
337
100
AcDbEntity
  8
025-DWG
100
AcDbLine
 10
372.138409
 20
835.482978
 30
0.0
 11
372.136831
 21
835.422291
 31
0.0
  0
LWPOLYLINE
  5
338
100
AcDbEntity
  8
025-DWG
100
AcDbPolyline
 90
        6
 70
     0
 43
0.0
 10
372.193358
 20
835.419989
 10
372.061032
 20
835.302119
 10
371.983164
 20
835.242604
 10
371.984878
 20
835.260649
 10
372.065622
 20
835.350429
 10
372.199343
 20
835.482978
  0
LWPOLYLINE
  5
339
100
AcDbEntity
  8
025-DWG
100
AcDbPolyline
 90
        3
 70
     0
 43
0.0
 10
372.199343
 20
835.482978
 10
372.370411
 20
835.655067
 10
372.423423
 20
835.726348
  0
LINE
  5
33A
100
AcDbEntity
  8
025-DWG
100
AcDbLine
 10
372.524063
 20
835.726348
 30
0.0
 11
372.193358
 21
835.419989
 31
0.0
  0
LWPOLYLINE
  5
33B
100
AcDbEntity
  8
025-DWG
100
AcDbPolyline
 90
        4
 70
     0
 43
0.0
 10
372.057815
 20
835.726348
 10
372.008478
 20
835.693743
 10
371.904156
 20
835.604663
 10
371.772801
 20
835.482978
  0
LWPOLYLINE
  5
33C
100
AcDbEntity
  8
025-DWG
100
AcDbPolyline
 90
        4
 70
     0
 43
0.0
 10
371.833735
 20
835.482978
 10
371.956927
 20
835.604663
 10
372.038946
 20
835.693743
 10
372.057815
 20
835.726348
  0
LWPOLYLINE
  5
33D
100
AcDbEntity
  8
025-DWG
100
AcDbPolyline
 90
        3
 70
     0
 43
0.0
 10
372.179684
 20
835.726348
 10
372.083585
 20
835.655067
 10
371.89467
 20
835.482978
  0
LWPOLYLINE
  5
33E
100
AcDbEntity
  8
025-DWG
100
AcDbPolyline
 90
        3
 70
     0
 43
0.0
 10
371.955605
 20
835.482978
 10
372.126673
 20
835.655067
 10
372.179684
 20
835.726348
  0
LWPOLYLINE
  5
33F
100
AcDbEntity
  8
025-DWG
100
AcDbPolyline
 90
        3
 70
     0
 43
0.0
 10
372.301554
 20
835.726348
 10
372.205455
 20
835.655067
 10
372.016539
 20
835.482978
  0
LWPOLYLINE
  5
340
100
AcDbEntity
  8
025-DWG
100
AcDbPolyline
 90
        6
 70
     0
 43
0.0
 10
372.138409
 20
835.482978
 10
371.982971
 20
835.339929
 10
371.875268
 20
835.251519
 10
371.856438
 20
835.251519
 10
371.933674
 20
835.339929
 10
372.077474
 20
835.482978
  0
LWPOLYLINE
  5
341
100
AcDbEntity
  8
025-DWG
100
AcDbPolyline
 90
        3
 70
     0
 43
0.0
 10
372.077474
 20
835.482978
 10
372.248542
 20
835.655067
 10
372.301554
 20
835.726348
  0
LWPOLYLINE
  5
342
100
AcDbEntity
  8
025-DWG
100
AcDbPolyline
 90
        4
 70
     0
 43
0.0
 10
372.423423
 20
835.726348
 10
372.374086
 20
835.693743
 10
372.269764
 20
835.604663
 10
372.138409
 20
835.482978
  0
LINE
  5
343
100
AcDbEntity
  8
025-DWG
100
AcDbLine
 10
372.423423
 20
835.726348
 30
0.0
 11
372.524063
 21
835.726348
 31
0.0
  0
LINE
  5
344
100
AcDbEntity
  8
025-DWG
100
AcDbLine
 10
372.301554
 20
835.726348
 30
0.0
 11
372.423423
 21
835.726348
 31
0.0
  0
LINE
  5
345
100
AcDbEntity
  8
025-DWG
100
AcDbLine
 10
372.179684
 20
835.726348
 30
0.0
 11
372.301554
 21
835.726348
 31
0.0
  0
LINE
  5
346
100
AcDbEntity
  8
025-DWG
100
AcDbLine
 10
372.057815
 20
835.726348
 30
0.0
 11
372.179684
 21
835.726348
 31
0.0
  0
LINE
  5
347
100
AcDbEntity
  8
025-DWG
100
AcDbLine
 10
371.935945
 20
835.726348
 30
0.0
 11
372.057815
 21
835.726348
 31
0.0
  0
LINE
  5
348
100
AcDbEntity
  8
025-DWG
100
AcDbLine
 10
371.814076
 20
835.726348
 30
0.0
 11
371.935945
 21
835.726348
 31
0.0
  0
LWPOLYLINE
  5
349
100
AcDbEntity
  8
025-DWG
100
AcDbPolyline
 90
        6
 70
     0
 43
0.0
 10
371.522884
 20
825.867366
 10
371.67467
 20
825.869944
 10
371.780333
 20
825.879828
 10
371.799511
 20
825.893241
 10
371.72488
 20
825.905061
 10
371.584947
 20
825.910773
  0
LWPOLYLINE
  5
34A
100
AcDbEntity
  8
025-DWG
100
AcDbPolyline
 90
        6
 70
     0
 43
0.0
 10
371.647009
 20
825.954179
 10
371.798796
 20
825.956757
 10
371.904458
 20
825.96664
 10
371.923637
 20
825.980053
 10
371.849006
 20
825.991873
 10
371.709072
 20
825.997585
  0
LWPOLYLINE
  5
34B
100
AcDbEntity
  8
025-DWG
100
AcDbPolyline
 90
        7
 70
     0
 43
0.0
 10
371.709072
 20
825.997585
 10
371.589153
 20
826.001825
 10
371.509682
 20
826.010745
 10
371.491951
 20
826.021954
 10
371.540713
 20
826.032448
 10
371.642901
 20
826.039416
 10
371.771135
 20
826.040991
  0
LWPOLYLINE
  5
34C
100
AcDbEntity
  8
025-DWG
100
AcDbPolyline
 90
        6
 70
     0
 43
0.0
 10
371.833198
 20
826.084397
 10
371.693264
 20
826.090109
 10
371.618633
 20
826.101929
 10
371.637812
 20
826.115342
 10
371.743474
 20
826.125225
 10
371.895261
 20
826.127803
  0
LWPOLYLINE
  5
34D
100
AcDbEntity
  8
035-DWG
100
AcDbPolyline
 90
        3
 70
     0
 43
0.0
 10
371.301908
 20
825.068497
 10
371.913383
 20
825.079858
 10
372.525638
 20
825.090892
  0
LINE
  5
34E
100
AcDbEntity
  8
025-DWG
100
AcDbLine
 10
371.15167
 20
825.651686
 30
0.0
 11
371.150507
 21
825.60693
 31
0.0
  0
LINE
  5
34F
100
AcDbEntity
  8
025-DWG
100
AcDbLine
 10
371.027544
 20
825.564874
 30
0.0
 11
371.026381
 21
825.520117
 31
0.0
  0
LINE
  5
350
100
AcDbEntity
  8
025-DWG
100
AcDbLine
 10
370.903419
 20
825.478061
 30
0.0
 11
370.902255
 21
825.433305
 31
0.0
  0
LINE
  5
351
100
AcDbEntity
  8
025-DWG
100
AcDbLine
 10
370.779293
 20
825.391249
 30
0.0
 11
370.77813
 21
825.346493
 31
0.0
  0
LINE
  5
352
100
AcDbEntity
  8
025-DWG
100
AcDbLine
 10
370.655167
 20
825.304437
 30
0.0
 11
370.654004
 21
825.25968
 31
0.0
  0
LINE
  5
353
100
AcDbEntity
  8
025-DWG
100
AcDbLine
 10
370.531042
 20
825.217625
 30
0.0
 11
370.529878
 21
825.172868
 31
0.0
  0
LINE
  5
354
100
AcDbEntity
  8
025-DWG
100
AcDbLine
 10
371.275796
 20
825.738498
 30
0.0
 11
371.274632
 21
825.693742
 31
0.0
  0
LINE
  5
355
100
AcDbEntity
  8
025-DWG
100
AcDbLine
 10
371.399921
 20
825.825311
 30
0.0
 11
371.398758
 21
825.780554
 31
0.0
  0
LINE
  5
356
100
AcDbEntity
  8
025-DWG
100
AcDbLine
 10
371.524047
 20
825.912123
 30
0.0
 11
371.522884
 21
825.867366
 31
0.0
  0
LINE
  5
357
100
AcDbEntity
  8
025-DWG
100
AcDbLine
 10
371.648173
 20
825.998935
 30
0.0
 11
371.647009
 21
825.954179
 31
0.0
  0
LINE
  5
358
100
AcDbEntity
  8
035-DWG
100
AcDbLine
 10
370.701398
 20
825.116606
 30
0.0
 11
370.706558
 21
825.120215
 31
0.0
  0
LINE
  5
359
100
AcDbEntity
  8
035-DWG
100
AcDbLine
 10
370.706558
 20
825.120215
 30
0.0
 11
370.404646
 21
825.130891
 31
0.0
  0
LWPOLYLINE
  5
35A
100
AcDbEntity
  8
035-DWG
100
AcDbPolyline
 90
        6
 70
     0
 43
0.0
 10
370.404646
 20
825.130891
 10
370.29367
 20
825.138624
 10
370.248896
 20
825.150403
 10
370.28477
 20
825.162428
 10
370.389719
 20
825.170819
 10
370.529878
 20
825.172868
  0
LWPOLYLINE
  5
35B
100
AcDbEntity
  8
025-DWG
100
AcDbPolyline
 90
        6
 70
     0
 43
0.0
 10
370.529878
 20
825.172868
 10
370.681665
 20
825.175446
 10
370.787328
 20
825.185329
 10
370.806506
 20
825.198742
 10
370.731875
 20
825.210562
 10
370.591941
 20
825.216274
  0
LWPOLYLINE
  5
35C
100
AcDbEntity
  8
025-DWG
100
AcDbPolyline
 90
        7
 70
     0
 43
0.0
 10
370.591941
 20
825.216274
 10
370.472023
 20
825.220515
 10
370.392551
 20
825.229434
 10
370.37482
 20
825.240643
 10
370.423582
 20
825.251137
 10
370.525771
 20
825.258106
 10
370.654004
 20
825.25968
  0
LWPOLYLINE
  5
35D
100
AcDbEntity
  8
025-DWG
100
AcDbPolyline
 90
        6
 70
     0
 43
0.0
 10
370.654004
 20
825.25968
 10
370.805791
 20
825.262258
 10
370.911453
 20
825.272142
 10
370.930632
 20
825.285555
 10
370.856001
 20
825.297375
 10
370.716067
 20
825.303086
  0
LWPOLYLINE
  5
35E
100
AcDbEntity
  8
025-DWG
100
AcDbPolyline
 90
        7
 70
     0
 43
0.0
 10
370.716067
 20
825.303086
 10
370.596148
 20
825.307327
 10
370.516676
 20
825.316247
 10
370.498946
 20
825.327455
 10
370.547708
 20
825.33795
 10
370.649896
 20
825.344918
 10
370.77813
 20
825.346493
  0
LWPOLYLINE
  5
35F
100
AcDbEntity
  8
025-DWG
100
AcDbPolyline
 90
        6
 70
     0
 43
0.0
 10
370.77813
 20
825.346493
 10
370.929917
 20
825.349071
 10
371.035579
 20
825.358954
 10
371.054757
 20
825.372367
 10
370.980126
 20
825.384187
 10
370.840193
 20
825.389899
  0
LWPOLYLINE
  5
360
100
AcDbEntity
  8
025-DWG
100
AcDbPolyline
 90
        6
 70
     0
 43
0.0
 10
370.840193
 20
825.389899
 10
370.700259
 20
825.395611
 10
370.625628
 20
825.40743
 10
370.644806
 20
825.420844
 10
370.750469
 20
825.430727
 10
370.902255
 20
825.433305
  0
LWPOLYLINE
  5
361
100
AcDbEntity
  8
025-DWG
100
AcDbPolyline
 90
        6
 70
     0
 43
0.0
 10
370.902255
 20
825.433305
 10
371.054042
 20
825.435883
 10
371.159704
 20
825.445766
 10
371.178883
 20
825.459179
 10
371.104252
 20
825.470999
 10
370.964318
 20
825.476711
  0
LWPOLYLINE
  5
362
100
AcDbEntity
  8
025-DWG
100
AcDbPolyline
 90
        7
 70
     0
 43
0.0
 10
370.964318
 20
825.476711
 10
370.8444
 20
825.480952
 10
370.764928
 20
825.489871
 10
370.747197
 20
825.50108
 10
370.795959
 20
825.511574
 10
370.898148
 20
825.518542
 10
371.026381
 20
825.520117
  0
LWPOLYLINE
  5
363
100
AcDbEntity
  8
025-DWG
100
AcDbPolyline
 90
        6
 70
     0
 43
0.0
 10
371.026381
 20
825.520117
 10
371.178168
 20
825.522695
 10
371.28383
 20
825.532578
 10
371.303009
 20
825.545992
 10
371.228378
 20
825.557812
 10
371.088444
 20
825.563523
  0
LWPOLYLINE
  5
364
100
AcDbEntity
  8
025-DWG
100
AcDbPolyline
 90
        6
 70
     0
 43
0.0
 10
371.088444
 20
825.563523
 10
370.94851
 20
825.569235
 10
370.873879
 20
825.581055
 10
370.893058
 20
825.594468
 10
370.99872
 20
825.604351
 10
371.150507
 20
825.60693
  0
LWPOLYLINE
  5
365
100
AcDbEntity
  8
025-DWG
100
AcDbPolyline
 90
        6
 70
     0
 43
0.0
 10
371.150507
 20
825.60693
 10
371.302293
 20
825.609508
 10
371.407956
 20
825.619391
 10
371.427134
 20
825.632804
 10
371.352503
 20
825.644624
 10
371.21257
 20
825.650336
  0
LWPOLYLINE
  5
366
100
AcDbEntity
  8
025-DWG
100
AcDbPolyline
 90
        6
 70
     0
 43
0.0
 10
371.21257
 20
825.650336
 10
371.072636
 20
825.656047
 10
370.998005
 20
825.667867
 10
371.017183
 20
825.681281
 10
371.122846
 20
825.691164
 10
371.274632
 20
825.693742
  0
LWPOLYLINE
  5
367
100
AcDbEntity
  8
025-DWG
100
AcDbPolyline
 90
        6
 70
     0
 43
0.0
 10
371.274632
 20
825.693742
 10
371.426419
 20
825.69632
 10
371.532081
 20
825.706203
 10
371.55126
 20
825.719616
 10
371.476629
 20
825.731436
 10
371.336695
 20
825.737148
  0
LWPOLYLINE
  5
368
100
AcDbEntity
  8
025-DWG
100
AcDbPolyline
 90
        7
 70
     0
 43
0.0
 10
371.336695
 20
825.737148
 10
371.216776
 20
825.741388
 10
371.137305
 20
825.750308
 10
371.119574
 20
825.761517
 10
371.168336
 20
825.772011
 10
371.270524
 20
825.778979
 10
371.398758
 20
825.780554
  0
LWPOLYLINE
  5
369
100
AcDbEntity
  8
025-DWG
100
AcDbPolyline
 90
        6
 70
     0
 43
0.0
 10
371.398758
 20
825.780554
 10
371.550545
 20
825.783132
 10
371.656207
 20
825.793015
 10
371.675386
 20
825.806429
 10
371.600755
 20
825.818248
 10
371.460821
 20
825.82396
  0
LWPOLYLINE
  5
36A
100
AcDbEntity
  8
025-DWG
100
AcDbPolyline
 90
        7
 70
     0
 43
0.0
 10
371.460821
 20
825.82396
 10
371.340902
 20
825.828201
 10
371.26143
 20
825.83712
 10
371.2437
 20
825.848329
 10
371.292462
 20
825.858823
 10
371.39465
 20
825.865792
 10
371.522884
 20
825.867366
  0
LWPOLYLINE
  5
36B
100
AcDbEntity
  8
025-DWG
100
AcDbPolyline
 90
        6
 70
     0
 43
0.0
 10
371.584947
 20
825.910773
 10
371.445013
 20
825.916484
 10
371.370382
 20
825.928304
 10
371.38956
 20
825.941718
 10
371.495223
 20
825.951601
 10
371.647009
 20
825.954179
  0
LWPOLYLINE
  5
36C
100
AcDbEntity
  8
035-DWG
100
AcDbPolyline
 90
        3
 70
     0
 43
0.0
 10
370.701398
 20
825.116606
 10
370.701449
 20
825.1185
 10
370.701501
 20
825.120394
  0
LWPOLYLINE
  5
36D
100
AcDbEntity
  8
035-DWG
100
AcDbPolyline
 90
        6
 70
     0
 43
0.0
 10
371.301908
 20
825.068497
 10
371.10887
 20
825.06819
 10
370.929399
 20
825.074284
 10
370.789673
 20
825.085877
 10
370.71044
 20
825.101292
 10
370.701398
 20
825.116606
  0
LWPOLYLINE
  5
36E
100
AcDbEntity
  8
035-DWG
100
AcDbPolyline
 90
        2
 70
     0
 43
0.0
 10
370.697778
 20
825.120526
 10
370.697528
 20
825.111274
  0
LINE
  5
36F
100
AcDbEntity
  8
025-DWG
100
AcDbLine
 10
371.772298
 20
826.085747
 30
0.0
 11
371.771135
 21
826.040991
 31
0.0
  0
LINE
  5
370
100
AcDbEntity
  8
025-DWG
100
AcDbLine
 10
371.896424
 20
826.17256
 30
0.0
 11
371.895261
 21
826.127803
 31
0.0
  0
LWPOLYLINE
  5
371
100
AcDbEntity
  8
025-DWG
100
AcDbPolyline
 90
        6
 70
     0
 43
0.0
 10
371.771135
 20
826.040991
 10
371.922922
 20
826.043569
 10
372.028584
 20
826.053452
 10
372.047763
 20
826.066865
 10
371.973132
 20
826.078685
 10
371.833198
 20
826.084397
  0
LWPOLYLINE
  5
372
100
AcDbEntity
  8
025-DWG
100
AcDbPolyline
 90
        6
 70
     0
 43
0.0
 10
371.895261
 20
826.127803
 10
372.047047
 20
826.130381
 10
372.15271
 20
826.140265
 10
372.171888
 20
826.153678
 10
372.097257
 20
826.165498
 10
371.957324
 20
826.171209
  0
LWPOLYLINE
  5
373
100
AcDbEntity
  8
025-DWG
100
AcDbPolyline
 90
        6
 70
     0
 43
0.0
 10
371.957324
 20
826.171209
 10
371.827176
 20
826.176163
 10
371.749035
 20
826.18652
 10
371.748112
 20
826.198941
 10
371.824706
 20
826.209416
 10
371.954102
 20
826.214566
  0
LINE
  5
374
100
AcDbEntity
  8
025-DWG
100
AcDbLine
 10
371.954102
 20
826.214566
 30
0.0
 11
372.276948
 21
826.218531
 31
0.0
  0
LINE
  5
375
100
AcDbEntity
  8
025-DWG
100
AcDbLine
 10
372.276948
 20
826.218531
 30
0.0
 11
372.360633
 21
826.277059
 31
0.0
  0
LINE
  5
376
100
AcDbEntity
  8
025-DWG
100
AcDbLine
 10
372.193358
 20
835.419989
 30
0.0
 11
371.954102
 21
826.214566
 31
0.0
  0
LINE
  5
377
100
AcDbEntity
  8
025-DWG
100
AcDbLine
 10
372.524063
 20
835.726348
 30
0.0
 11
372.276948
 21
826.218531
 31
0.0
  0
LINE
  5
378
100
AcDbEntity
  8
025-DWG
100
AcDbLine
 10
371.973448
 20
835.241421
 30
0.0
 11
371.738271
 21
826.192914
 31
0.0
  0
LINE
  5
379
100
AcDbEntity
  8
025-DWG
100
AcDbLine
 10
371.851579
 20
835.241421
 30
0.0
 11
371.614145
 21
826.106102
 31
0.0
  0
LINE
  5
37A
100
AcDbEntity
  8
025-DWG
100
AcDbLine
 10
371.729709
 20
835.241421
 30
0.0
 11
371.490019
 21
826.01929
 31
0.0
  0
LINE
  5
37B
100
AcDbEntity
  8
025-DWG
100
AcDbLine
 10
371.60784
 20
835.241421
 30
0.0
 11
371.365894
 21
825.932477
 31
0.0
  0
LINE
  5
37C
100
AcDbEntity
  8
025-DWG
100
AcDbLine
 10
371.485971
 20
835.241421
 30
0.0
 11
371.241768
 21
825.845665
 31
0.0
  0
LINE
  5
37D
100
AcDbEntity
  8
025-DWG
100
AcDbLine
 10
371.364101
 20
835.241421
 30
0.0
 11
371.117642
 21
825.758853
 31
0.0
  0
LINE
  5
37E
100
AcDbEntity
  8
025-DWG
100
AcDbLine
 10
371.242232
 20
835.241421
 30
0.0
 11
370.993517
 21
825.672041
 31
0.0
  0
LINE
  5
37F
100
AcDbEntity
  8
035-DWG
100
AcDbLine
 10
370.511016
 20
835.241421
 30
0.0
 11
370.248763
 21
825.151167
 31
0.0
  0
LINE
  5
380
100
AcDbEntity
  8
025-DWG
100
AcDbLine
 10
370.632885
 20
835.241421
 30
0.0
 11
370.372888
 21
825.237979
 31
0.0
  0
LINE
  5
381
100
AcDbEntity
  8
025-DWG
100
AcDbLine
 10
370.754754
 20
835.241421
 30
0.0
 11
370.497014
 21
825.324791
 31
0.0
  0
LINE
  5
382
100
AcDbEntity
  8
025-DWG
100
AcDbLine
 10
370.876624
 20
835.241421
 30
0.0
 11
370.62114
 21
825.411604
 31
0.0
  0
LINE
  5
383
100
AcDbEntity
  8
025-DWG
100
AcDbLine
 10
370.998493
 20
835.241421
 30
0.0
 11
370.745265
 21
825.498416
 31
0.0
  0
LINE
  5
384
100
AcDbEntity
  8
025-DWG
100
AcDbLine
 10
371.120362
 20
835.241421
 30
0.0
 11
370.869391
 21
825.585228
 31
0.0
  0
POLYLINE
  5
385
100
AcDbEntity
  8
035-DWG
100
AcDb2dPolyline
 66
     1
 10
0.0
 20
0.0
 30
0.0
 70
     2
  0
VERTEX
  5
386
100
AcDbEntity
  8
035-DWG
100
AcDbVertex
100
AcDb2dVertex
 10
371.002405
 20
836.226177
 30
0.0
 42
-0.022422
  0
VERTEX
  5
387
100
AcDbEntity
  8
035-DWG
100
AcDbVertex
100
AcDb2dVertex
 10
371.010491
 20
836.338618
 30
0.0
 42
-0.038825
 70
     1
  0
VERTEX
  5
388
100
AcDbEntity
  8
035-DWG
100
AcDbVertex
100
AcDb2dVertex
 10
371.023069
 20
836.402561
 30
0.0
 42
-0.051699
  0
VERTEX
  5
389
100
AcDbEntity
  8
035-DWG
100
AcDbVertex
100
AcDb2dVertex
 10
371.136696
 20
836.691105
 30
0.0
 42
-0.070823
 70
     1
  0
VERTEX
  5
38A
100
AcDbEntity
  8
035-DWG
100
AcDbVertex
100
AcDb2dVertex
 10
371.26851
 20
836.875795
 30
0.0
 42
-0.043792
  0
VERTEX
  5
38B
100
AcDbEntity
  8
035-DWG
100
AcDbVertex
100
AcDb2dVertex
 10
371.431355
 20
837.019196
 30
0.0
 42
-0.058803
 70
     1
  0
VERTEX
  5
38C
100
AcDbEntity
  8
035-DWG
100
AcDbVertex
100
AcDb2dVertex
 10
371.572045
 20
837.099189
 30
0.0
 42
-0.020723
  0
VERTEX
  5
38D
100
AcDbEntity
  8
035-DWG
100
AcDbVertex
100
AcDb2dVertex
 10
371.684856
 20
837.141404
 30
0.0
 42
-0.017005
 70
     1
  0
VERTEX
  5
38E
100
AcDbEntity
  8
035-DWG
100
AcDbVertex
100
AcDb2dVertex
 10
371.825796
 20
837.182334
 30
0.0
 42
-0.03895
  0
VERTEX
  5
38F
100
AcDbEntity
  8
035-DWG
100
AcDbVertex
100
AcDb2dVertex
 10
371.896148
 20
837.194466
 30
0.0
 42
-0.023269
 70
     1
  0
VERTEX
  5
390
100
AcDbEntity
  8
035-DWG
100
AcDbVertex
100
AcDb2dVertex
 10
372.015402
 20
837.2
 30
0.0
  0
SEQEND
  5
391
100
AcDbEntity
  8
035-DWG
  0
LINE
  5
392
100
AcDbEntity
  8
035-DWG
100
AcDbLine
 10
372.525638
 20
825.090892
 30
0.0
 11
374.193488
 21
826.25737
 31
0.0
  0
LINE
  5
393
100
AcDbEntity
  8
025-DWG
100
AcDbLine
 10
372.619218
 20
836.226177
 30
0.0
 11
372.360633
 21
826.277059
 31
0.0
  0
LWPOLYLINE
  5
394
100
AcDbEntity
  8
025-DWG
100
AcDbPolyline
 90
        3
 70
     0
 43
0.0
 10
372.360633
 20
826.277059
 10
372.58087
 20
826.346132
 10
373.021262
 20
826.406612
  0
LINE
  5
395
100
AcDbEntity
  8
025-DWG
100
AcDbLine
 10
371.002405
 20
836.226177
 30
0.0
 11
372.619218
 21
836.226177
 31
0.0
  0
LINE
  5
396
100
AcDbEntity
  8
035-DWG
100
AcDbLine
 10
373.611424
 20
837.2
 30
0.0
 11
372.015402
 21
837.2
 31
0.0
  0
LINE
  5
397
100
AcDbEntity
  8
035-DWG
100
AcDbLine
 10
411.82817
 20
837.2
 30
0.0
 11
412.188576
 21
837.2
 31
0.0
  0
LINE
  5
398
100
AcDbEntity
  8
035-DWG
100
AcDbLine
 10
413.784598
 20
837.2
 30
0.0
 11
412.188576
 21
837.2
 31
0.0
  0
LWPOLYLINE
  5
399
100
AcDbEntity
  8
025-DWG
100
AcDbPolyline
 90
        3
 70
     0
 43
0.0
 10
415.002154
 20
835.482978
 10
414.813239
 20
835.655067
 10
414.71714
 20
835.726348
  0
LWPOLYLINE
  5
39A
100
AcDbEntity
  8
025-DWG
100
AcDbPolyline
 90
        6
 70
     0
 43
0.0
 10
414.697481
 20
835.482978
 10
414.841281
 20
835.339929
 10
414.918517
 20
835.251519
 10
414.899687
 20
835.251519
 10
414.791984
 20
835.339929
 10
414.636546
 20
835.482978
  0
LWPOLYLINE
  5
39B
100
AcDbEntity
  8
025-DWG
100
AcDbPolyline
 90
        6
 70
     0
 43
0.0
 10
414.81935
 20
835.482978
 10
414.96315
 20
835.339929
 10
415.040386
 20
835.251519
 10
415.021556
 20
835.251519
 10
414.913853
 20
835.339929
 10
414.758416
 20
835.482978
  0
LWPOLYLINE
  5
39C
100
AcDbEntity
  8
025-DWG
100
AcDbPolyline
 90
        4
 70
     0
 43
0.0
 10
414.595271
 20
835.726348
 10
414.61414
 20
835.693743
 10
414.696159
 20
835.604663
 10
414.81935
 20
835.482978
  0
LWPOLYLINE
  5
39D
100
AcDbEntity
  8
025-DWG
100
AcDbPolyline
 90
        3
 70
     0
 43
0.0
 10
414.880285
 20
835.482978
 10
414.691369
 20
835.655067
 10
414.595271
 20
835.726348
  0
LWPOLYLINE
  5
39E
100
AcDbEntity
  8
025-DWG
100
AcDbPolyline
 90
        4
 70
     0
 43
0.0
 10
414.71714
 20
835.726348
 10
414.736009
 20
835.693743
 10
414.818028
 20
835.604663
 10
414.94122
 20
835.482978
  0
LWPOLYLINE
  5
39F
100
AcDbEntity
  8
025-DWG
100
AcDbPolyline
 90
        2
 70
     0
 43
0.0
 10
414.814748
 20
835.729343
 10
414.811135
 20
835.726348
  0
LWPOLYLINE
  5
3A0
100
AcDbEntity
  8
035-DWG
100
AcDbPolyline
 90
        2
 70
     0
 43
0.0
 10
414.81478
 20
835.729312
 10
414.801308
 20
836.226628
  0
LINE
  5
3A1
100
AcDbEntity
  8
025-DWG
100
AcDbLine
 10
414.149069
 20
835.482978
 30
0.0
 11
414.150646
 21
835.422291
 31
0.0
  0
LINE
  5
3A2
100
AcDbEntity
  8
025-DWG
100
AcDbLine
 10
414.027199
 20
835.482978
 30
0.0
 11
414.028777
 21
835.422291
 31
0.0
  0
LINE
  5
3A3
100
AcDbEntity
  8
025-DWG
100
AcDbLine
 10
413.90533
 20
835.482978
 30
0.0
 11
413.906907
 21
835.422291
 31
0.0
  0
LINE
  5
3A4
100
AcDbEntity
  8
025-DWG
100
AcDbLine
 10
413.783461
 20
835.482978
 30
0.0
 11
413.785038
 21
835.422291
 31
0.0
  0
LINE
  5
3A5
100
AcDbEntity
  8
025-DWG
100
AcDbLine
 10
413.661591
 20
835.482978
 30
0.0
 11
413.663169
 21
835.422291
 31
0.0
  0
LINE
  5
3A6
100
AcDbEntity
  8
025-DWG
100
AcDbLine
 10
414.270938
 20
835.482978
 30
0.0
 11
414.272515
 21
835.422291
 31
0.0
  0
LINE
  5
3A7
100
AcDbEntity
  8
025-DWG
100
AcDbLine
 10
414.392807
 20
835.482978
 30
0.0
 11
414.394385
 21
835.422291
 31
0.0
  0
LINE
  5
3A8
100
AcDbEntity
  8
025-DWG
100
AcDbLine
 10
414.514677
 20
835.482978
 30
0.0
 11
414.516254
 21
835.422291
 31
0.0
  0
LINE
  5
3A9
100
AcDbEntity
  8
025-DWG
100
AcDbLine
 10
414.636546
 20
835.482978
 30
0.0
 11
414.638123
 21
835.422291
 31
0.0
  0
LINE
  5
3AA
100
AcDbEntity
  8
025-DWG
100
AcDbLine
 10
414.758416
 20
835.482978
 30
0.0
 11
414.759993
 21
835.422291
 31
0.0
  0
LWPOLYLINE
  5
3AB
100
AcDbEntity
  8
025-DWG
100
AcDbPolyline
 90
        4
 70
     0
 43
0.0
 10
413.376577
 20
835.726348
 10
413.395446
 20
835.693743
 10
413.477465
 20
835.604663
 10
413.600657
 20
835.482978
  0
LWPOLYLINE
  5
3AC
100
AcDbEntity
  8
025-DWG
100
AcDbPolyline
 90
        6
 70
     0
 43
0.0
 10
413.600657
 20
835.482978
 10
413.734378
 20
835.350429
 10
413.815122
 20
835.260649
 10
413.816836
 20
835.242604
 10
413.738968
 20
835.302119
 10
413.606642
 20
835.419989
  0
LINE
  5
3AD
100
AcDbEntity
  8
025-DWG
100
AcDbLine
 10
413.606642
 20
835.419989
 30
0.0
 11
413.275937
 21
835.726348
 31
0.0
  0
LWPOLYLINE
  5
3AE
100
AcDbEntity
  8
025-DWG
100
AcDbPolyline
 90
        4
 70
     0
 43
0.0
 10
413.498446
 20
835.726348
 10
413.517316
 20
835.693743
 10
413.599334
 20
835.604663
 10
413.722526
 20
835.482978
  0
LWPOLYLINE
  5
3AF
100
AcDbEntity
  8
025-DWG
100
AcDbPolyline
 90
        6
 70
     0
 43
0.0
 10
413.722526
 20
835.482978
 10
413.866326
 20
835.339929
 10
413.943562
 20
835.251519
 10
413.924732
 20
835.251519
 10
413.817029
 20
835.339929
 10
413.661591
 20
835.482978
  0
LWPOLYLINE
  5
3B0
100
AcDbEntity
  8
025-DWG
100
AcDbPolyline
 90
        4
 70
     0
 43
0.0
 10
413.661591
 20
835.482978
 10
413.530236
 20
835.604663
 10
413.425914
 20
835.693743
 10
413.376577
 20
835.726348
  0
LWPOLYLINE
  5
3B1
100
AcDbEntity
  8
025-DWG
100
AcDbPolyline
 90
        3
 70
     0
 43
0.0
 10
413.620316
 20
835.726348
 10
413.673327
 20
835.655067
 10
413.844395
 20
835.482978
  0
LWPOLYLINE
  5
3B2
100
AcDbEntity
  8
025-DWG
100
AcDbPolyline
 90
        6
 70
     0
 43
0.0
 10
413.844395
 20
835.482978
 10
413.988196
 20
835.339929
 10
414.065432
 20
835.251519
 10
414.046602
 20
835.251519
 10
413.938898
 20
835.339929
 10
413.783461
 20
835.482978
  0
LWPOLYLINE
  5
3B3
100
AcDbEntity
  8
025-DWG
100
AcDbPolyline
 90
        3
 70
     0
 43
0.0
 10
413.783461
 20
835.482978
 10
413.594545
 20
835.655067
 10
413.498446
 20
835.726348
  0
LWPOLYLINE
  5
3B4
100
AcDbEntity
  8
025-DWG
100
AcDbPolyline
 90
        4
 70
     0
 43
0.0
 10
413.742185
 20
835.726348
 10
413.761054
 20
835.693743
 10
413.843073
 20
835.604663
 10
413.966265
 20
835.482978
  0
LWPOLYLINE
  5
3B5
100
AcDbEntity
  8
025-DWG
100
AcDbPolyline
 90
        7
 70
     0
 43
0.0
 10
413.966265
 20
835.482978
 10
414.089456
 20
835.361293
 10
414.171475
 20
835.272214
 10
414.190344
 20
835.239608
 10
414.141008
 20
835.272214
 10
414.036685
 20
835.361293
 10
413.90533
 20
835.482978
  0
LWPOLYLINE
  5
3B6
100
AcDbEntity
  8
025-DWG
100
AcDbPolyline
 90
        3
 70
     0
 43
0.0
 10
413.90533
 20
835.482978
 10
413.716415
 20
835.655067
 10
413.620316
 20
835.726348
  0
LWPOLYLINE
  5
3B7
100
AcDbEntity
  8
025-DWG
100
AcDbPolyline
 90
        4
 70
     0
 43
0.0
 10
413.864055
 20
835.726348
 10
413.882924
 20
835.693743
 10
413.964942
 20
835.604663
 10
414.088134
 20
835.482978
  0
LWPOLYLINE
  5
3B8
100
AcDbEntity
  8
025-DWG
100
AcDbPolyline
 90
        6
 70
     0
 43
0.0
 10
414.088134
 20
835.482978
 10
414.231934
 20
835.339929
 10
414.30917
 20
835.251519
 10
414.29034
 20
835.251519
 10
414.182637
 20
835.339929
 10
414.027199
 20
835.482978
  0
LWPOLYLINE
  5
3B9
100
AcDbEntity
  8
025-DWG
100
AcDbPolyline
 90
        3
 70
     0
 43
0.0
 10
414.027199
 20
835.482978
 10
413.838284
 20
835.655067
 10
413.742185
 20
835.726348
  0
LWPOLYLINE
  5
3BA
100
AcDbEntity
  8
025-DWG
100
AcDbPolyline
 90
        4
 70
     0
 43
0.0
 10
413.985924
 20
835.726348
 10
414.004793
 20
835.693743
 10
414.086812
 20
835.604663
 10
414.210003
 20
835.482978
  0
LWPOLYLINE
  5
3BB
100
AcDbEntity
  8
025-DWG
100
AcDbPolyline
 90
        6
 70
     0
 43
0.0
 10
414.210003
 20
835.482978
 10
414.353804
 20
835.339929
 10
414.43104
 20
835.251519
 10
414.41221
 20
835.251519
 10
414.304506
 20
835.339929
 10
414.149069
 20
835.482978
  0
LWPOLYLINE
  5
3BC
100
AcDbEntity
  8
025-DWG
100
AcDbPolyline
 90
        3
 70
     0
 43
0.0
 10
414.149069
 20
835.482978
 10
413.960153
 20
835.655067
 10
413.864055
 20
835.726348
  0
LWPOLYLINE
  5
3BD
100
AcDbEntity
  8
025-DWG
100
AcDbPolyline
 90
        6
 70
     0
 43
0.0
 10
414.331873
 20
835.482978
 10
414.475673
 20
835.339929
 10
414.552909
 20
835.251519
 10
414.534079
 20
835.251519
 10
414.426376
 20
835.339929
 10
414.270938
 20
835.482978
  0
LWPOLYLINE
  5
3BE
100
AcDbEntity
  8
025-DWG
100
AcDbPolyline
 90
        3
 70
     0
 43
0.0
 10
414.270938
 20
835.482978
 10
414.082023
 20
835.655067
 10
413.985924
 20
835.726348
  0
LWPOLYLINE
  5
3BF
100
AcDbEntity
  8
025-DWG
100
AcDbPolyline
 90
        4
 70
     0
 43
0.0
 10
414.107793
 20
835.726348
 10
414.126662
 20
835.693743
 10
414.208681
 20
835.604663
 10
414.331873
 20
835.482978
  0
LWPOLYLINE
  5
3C0
100
AcDbEntity
  8
025-DWG
100
AcDbPolyline
 90
        6
 70
     0
 43
0.0
 10
414.453742
 20
835.482978
 10
414.597542
 20
835.339929
 10
414.674778
 20
835.251519
 10
414.655948
 20
835.251519
 10
414.548245
 20
835.339929
 10
414.392807
 20
835.482978
  0
LWPOLYLINE
  5
3C1
100
AcDbEntity
  8
025-DWG
100
AcDbPolyline
 90
        3
 70
     0
 43
0.0
 10
414.392807
 20
835.482978
 10
414.203892
 20
835.655067
 10
414.107793
 20
835.726348
  0
LWPOLYLINE
  5
3C2
100
AcDbEntity
  8
025-DWG
100
AcDbPolyline
 90
        3
 70
     0
 43
0.0
 10
414.229663
 20
835.726348
 10
414.282674
 20
835.655067
 10
414.453742
 20
835.482978
  0
LWPOLYLINE
  5
3C3
100
AcDbEntity
  8
025-DWG
100
AcDbPolyline
 90
        6
 70
     0
 43
0.0
 10
414.575612
 20
835.482978
 10
414.719412
 20
835.339929
 10
414.796648
 20
835.251519
 10
414.777818
 20
835.251519
 10
414.670115
 20
835.339929
 10
414.514677
 20
835.482978
  0
LWPOLYLINE
  5
3C4
100
AcDbEntity
  8
025-DWG
100
AcDbPolyline
 90
        3
 70
     0
 43
0.0
 10
414.514677
 20
835.482978
 10
414.325761
 20
835.655067
 10
414.229663
 20
835.726348
  0
LWPOLYLINE
  5
3C5
100
AcDbEntity
  8
025-DWG
100
AcDbPolyline
 90
        4
 70
     0
 43
0.0
 10
414.351532
 20
835.726348
 10
414.370401
 20
835.693743
 10
414.45242
 20
835.604663
 10
414.575612
 20
835.482978
  0
LWPOLYLINE
  5
3C6
100
AcDbEntity
  8
025-DWG
100
AcDbPolyline
 90
        3
 70
     0
 43
0.0
 10
414.636546
 20
835.482978
 10
414.447631
 20
835.655067
 10
414.351532
 20
835.726348
  0
LWPOLYLINE
  5
3C7
100
AcDbEntity
  8
025-DWG
100
AcDbPolyline
 90
        4
 70
     0
 43
0.0
 10
414.473401
 20
835.726348
 10
414.49227
 20
835.693743
 10
414.574289
 20
835.604663
 10
414.697481
 20
835.482978
  0
LWPOLYLINE
  5
3C8
100
AcDbEntity
  8
025-DWG
100
AcDbPolyline
 90
        3
 70
     0
 43
0.0
 10
414.758416
 20
835.482978
 10
414.5695
 20
835.655067
 10
414.473401
 20
835.726348
  0
LINE
  5
3C9
100
AcDbEntity
  8
025-DWG
100
AcDbLine
 10
414.71714
 20
835.726348
 30
0.0
 11
414.811135
 21
835.726348
 31
0.0
  0
LINE
  5
3CA
100
AcDbEntity
  8
025-DWG
100
AcDbLine
 10
414.595271
 20
835.726348
 30
0.0
 11
414.71714
 21
835.726348
 31
0.0
  0
LINE
  5
3CB
100
AcDbEntity
  8
025-DWG
100
AcDbLine
 10
414.473401
 20
835.726348
 30
0.0
 11
414.595271
 21
835.726348
 31
0.0
  0
LINE
  5
3CC
100
AcDbEntity
  8
025-DWG
100
AcDbLine
 10
414.351532
 20
835.726348
 30
0.0
 11
414.473401
 21
835.726348
 31
0.0
  0
LINE
  5
3CD
100
AcDbEntity
  8
025-DWG
100
AcDbLine
 10
414.229663
 20
835.726348
 30
0.0
 11
414.351532
 21
835.726348
 31
0.0
  0
LINE
  5
3CE
100
AcDbEntity
  8
025-DWG
100
AcDbLine
 10
414.107793
 20
835.726348
 30
0.0
 11
414.229663
 21
835.726348
 31
0.0
  0
LINE
  5
3CF
100
AcDbEntity
  8
025-DWG
100
AcDbLine
 10
413.985924
 20
835.726348
 30
0.0
 11
414.107793
 21
835.726348
 31
0.0
  0
LINE
  5
3D0
100
AcDbEntity
  8
025-DWG
100
AcDbLine
 10
413.864055
 20
835.726348
 30
0.0
 11
413.985924
 21
835.726348
 31
0.0
  0
LINE
  5
3D1
100
AcDbEntity
  8
025-DWG
100
AcDbLine
 10
413.742185
 20
835.726348
 30
0.0
 11
413.864055
 21
835.726348
 31
0.0
  0
LINE
  5
3D2
100
AcDbEntity
  8
025-DWG
100
AcDbLine
 10
413.620316
 20
835.726348
 30
0.0
 11
413.742185
 21
835.726348
 31
0.0
  0
LINE
  5
3D3
100
AcDbEntity
  8
025-DWG
100
AcDbLine
 10
413.498446
 20
835.726348
 30
0.0
 11
413.620316
 21
835.726348
 31
0.0
  0
LINE
  5
3D4
100
AcDbEntity
  8
025-DWG
100
AcDbLine
 10
413.376577
 20
835.726348
 30
0.0
 11
413.498446
 21
835.726348
 31
0.0
  0
LINE
  5
3D5
100
AcDbEntity
  8
025-DWG
100
AcDbLine
 10
413.275937
 20
835.726348
 30
0.0
 11
413.376577
 21
835.726348
 31
0.0
  0
LINE
  5
3D6
100
AcDbEntity
  8
025-DWG
100
AcDbLine
 10
413.180782
 20
836.226177
 30
0.0
 11
414.797595
 21
836.226177
 31
0.0
  0
ELLIPSE
  5
3D7
100
AcDbEntity
  8
025-DWG
100
AcDbEllipse
 10
414.301492
 20
836.213088
 30
0.0
 11
0.4998166460733808
 21
0.0135395830052753
 31
0.0
210
0.0
220
0.0
230
1.0
 40
0.005752
 41
-0.122133003078789
 42
-0.0000000000002249
  0
LINE
  5
3D8
100
AcDbEntity
  8
025-DWG
100
AcDbLine
 10
414.880285
 20
835.482978
 30
0.0
 11
414.881862
 21
835.422291
 31
0.0
  0
LINE
  5
3D9
100
AcDbEntity
  8
025-DWG
100
AcDbLine
 10
415.002154
 20
835.482978
 30
0.0
 11
415.003732
 21
835.422291
 31
0.0
  0
LWPOLYLINE
  5
3DA
100
AcDbEntity
  8
035-DWG
100
AcDbPolyline
 90
        6
 70
     0
 43
0.0
 10
415.127932
 20
835.419989
 10
415.242173
 20
835.302119
 10
415.288801
 20
835.242604
 10
415.25277
 20
835.260649
 10
415.145706
 20
835.350429
 10
415.002154
 20
835.482978
  0
LINE
  5
3DB
100
AcDbEntity
  8
035-DWG
100
AcDbLine
 10
414.814748
 20
835.729343
 30
0.0
 11
415.127932
 21
835.419989
 31
0.0
  0
LWPOLYLINE
  5
3DC
100
AcDbEntity
  8
025-DWG
100
AcDbPolyline
 90
        6
 70
     0
 43
0.0
 10
414.94122
 20
835.482978
 10
415.08502
 20
835.339929
 10
415.162256
 20
835.251519
 10
415.143426
 20
835.251519
 10
415.035723
 20
835.339929
 10
414.880285
 20
835.482978
  0
LINE
  5
3DD
100
AcDbEntity
  8
025-DWG
100
AcDbLine
 10
413.180782
 20
836.226177
 30
0.0
 11
412.584256
 21
836.226177
 31
0.0
  0
LWPOLYLINE
  5
3DE
100
AcDbEntity
  8
025-DWG
100
AcDbPolyline
 90
        6
 70
     0
 43
0.0
 10
414.649493
 20
825.60693
 10
414.80128
 20
825.604351
 10
414.906942
 20
825.594468
 10
414.926121
 20
825.581055
 10
414.85149
 20
825.569235
 10
414.711556
 20
825.563523
  0
LWPOLYLINE
  5
3DF
100
AcDbEntity
  8
025-DWG
100
AcDbPolyline
 90
        6
 70
     0
 43
0.0
 10
414.773619
 20
825.520117
 10
414.925406
 20
825.517539
 10
415.031068
 20
825.507656
 10
415.050246
 20
825.494243
 10
414.975616
 20
825.482423
 10
414.835682
 20
825.476711
  0
LWPOLYLINE
  5
3E0
100
AcDbEntity
  8
025-DWG
100
AcDbPolyline
 90
        6
 70
     0
 43
0.0
 10
414.835682
 20
825.476711
 10
414.695748
 20
825.470999
 10
414.621117
 20
825.459179
 10
414.640296
 20
825.445766
 10
414.745958
 20
825.435883
 10
414.897745
 20
825.433305
  0
LWPOLYLINE
  5
3E1
100
AcDbEntity
  8
025-DWG
100
AcDbPolyline
 90
        7
 70
     0
 43
0.0
 10
414.959807
 20
825.389899
 10
414.839889
 20
825.385658
 10
414.760417
 20
825.376739
 10
414.742687
 20
825.36553
 10
414.791448
 20
825.355036
 10
414.893637
 20
825.348067
 10
415.02187
 20
825.346493
  0
LWPOLYLINE
  5
3E2
100
AcDbEntity
  8
035-DWG
100
AcDbPolyline
 90
        6
 70
     0
 43
0.0
 10
415.098602
 20
825.116606
 10
415.084796
 20
825.099641
 10
414.998376
 20
825.084466
 10
414.852999
 20
825.073353
 10
414.680784
 20
825.068038
 10
414.498092
 20
825.068497
  0
LINE
  5
3E3
100
AcDbEntity
  8
025-DWG
100
AcDbLine
 10
414.400079
 20
825.825311
 30
0.0
 11
414.401242
 21
825.780554
 31
0.0
  0
LINE
  5
3E4
100
AcDbEntity
  8
025-DWG
100
AcDbLine
 10
414.275953
 20
825.912123
 30
0.0
 11
414.277116
 21
825.867366
 31
0.0
  0
LINE
  5
3E5
100
AcDbEntity
  8
025-DWG
100
AcDbLine
 10
414.151827
 20
825.998935
 30
0.0
 11
414.152991
 21
825.954179
 31
0.0
  0
LINE
  5
3E6
100
AcDbEntity
  8
025-DWG
100
AcDbLine
 10
414.027702
 20
826.085747
 30
0.0
 11
414.028865
 21
826.040991
 31
0.0
  0
LINE
  5
3E7
100
AcDbEntity
  8
025-DWG
100
AcDbLine
 10
413.903576
 20
826.17256
 30
0.0
 11
413.904739
 21
826.127803
 31
0.0
  0
LINE
  5
3E8
100
AcDbEntity
  8
025-DWG
100
AcDbLine
 10
414.524204
 20
825.738498
 30
0.0
 11
414.525368
 21
825.693742
 31
0.0
  0
LINE
  5
3E9
100
AcDbEntity
  8
025-DWG
100
AcDbLine
 10
414.64833
 20
825.651686
 30
0.0
 11
414.649493
 21
825.60693
 31
0.0
  0
LINE
  5
3EA
100
AcDbEntity
  8
025-DWG
100
AcDbLine
 10
414.772456
 20
825.564874
 30
0.0
 11
414.773619
 21
825.520117
 31
0.0
  0
LINE
  5
3EB
100
AcDbEntity
  8
025-DWG
100
AcDbLine
 10
413.439367
 20
826.277059
 30
0.0
 11
413.523052
 21
826.218531
 31
0.0
  0
LINE
  5
3EC
100
AcDbEntity
  8
025-DWG
100
AcDbLine
 10
413.523052
 20
826.218531
 30
0.0
 11
413.845898
 21
826.214566
 31
0.0
  0
LWPOLYLINE
  5
3ED
100
AcDbEntity
  8
025-DWG
100
AcDbPolyline
 90
        6
 70
     0
 43
0.0
 10
413.845898
 20
826.214566
 10
413.975294
 20
826.209416
 10
414.051888
 20
826.198941
 10
414.050965
 20
826.18652
 10
413.972824
 20
826.176163
 10
413.842676
 20
826.171209
  0
LWPOLYLINE
  5
3EE
100
AcDbEntity
  8
025-DWG
100
AcDbPolyline
 90
        7
 70
     0
 43
0.0
 10
413.842676
 20
826.171209
 10
413.722758
 20
826.166969
 10
413.643286
 20
826.158049
 10
413.625556
 20
826.146841
 10
413.674317
 20
826.136346
 10
413.776506
 20
826.129378
 10
413.904739
 20
826.127803
  0
LWPOLYLINE
  5
3EF
100
AcDbEntity
  8
025-DWG
100
AcDbPolyline
 90
        6
 70
     0
 43
0.0
 10
413.904739
 20
826.127803
 10
414.056526
 20
826.125225
 10
414.162188
 20
826.115342
 10
414.181367
 20
826.101929
 10
414.106736
 20
826.090109
 10
413.966802
 20
826.084397
  0
LWPOLYLINE
  5
3F0
100
AcDbEntity
  8
025-DWG
100
AcDbPolyline
 90
        6
 70
     0
 43
0.0
 10
413.966802
 20
826.084397
 10
413.826868
 20
826.078685
 10
413.752237
 20
826.066865
 10
413.771416
 20
826.053452
 10
413.877078
 20
826.043569
 10
414.028865
 20
826.040991
  0
LWPOLYLINE
  5
3F1
100
AcDbEntity
  8
025-DWG
100
AcDbPolyline
 90
        6
 70
     0
 43
0.0
 10
414.028865
 20
826.040991
 10
414.180652
 20
826.038413
 10
414.286314
 20
826.02853
 10
414.305492
 20
826.015117
 10
414.230862
 20
826.003297
 10
414.090928
 20
825.997585
  0
LWPOLYLINE
  5
3F2
100
AcDbEntity
  8
025-DWG
100
AcDbPolyline
 90
        7
 70
     0
 43
0.0
 10
414.090928
 20
825.997585
 10
413.971009
 20
825.993344
 10
413.891537
 20
825.984425
 10
413.873807
 20
825.973216
 10
413.922569
 20
825.962722
 10
414.024757
 20
825.955754
 10
414.152991
 20
825.954179
  0
LWPOLYLINE
  5
3F3
100
AcDbEntity
  8
025-DWG
100
AcDbPolyline
 90
        7
 70
     0
 43
0.0
 10
414.152991
 20
825.954179
 10
414.281224
 20
825.952604
 10
414.383413
 20
825.945636
 10
414.432174
 20
825.935141
 10
414.414444
 20
825.923933
 10
414.334972
 20
825.915013
 10
414.215053
 20
825.910773
  0
LWPOLYLINE
  5
3F4
100
AcDbEntity
  8
025-DWG
100
AcDbPolyline
 90
        6
 70
     0
 43
0.0
 10
414.215053
 20
825.910773
 10
414.07512
 20
825.905061
 10
414.000489
 20
825.893241
 10
414.019667
 20
825.879828
 10
414.12533
 20
825.869944
 10
414.277116
 20
825.867366
  0
LWPOLYLINE
  5
3F5
100
AcDbEntity
  8
025-DWG
100
AcDbPolyline
 90
        6
 70
     0
 43
0.0
 10
414.277116
 20
825.867366
 10
414.428903
 20
825.864788
 10
414.534565
 20
825.854905
 10
414.553744
 20
825.841492
 10
414.479113
 20
825.829672
 10
414.339179
 20
825.82396
  0
LWPOLYLINE
  5
3F6
100
AcDbEntity
  8
025-DWG
100
AcDbPolyline
 90
        6
 70
     0
 43
0.0
 10
414.339179
 20
825.82396
 10
414.199245
 20
825.818248
 10
414.124614
 20
825.806429
 10
414.143793
 20
825.793015
 10
414.249455
 20
825.783132
 10
414.401242
 20
825.780554
  0
LWPOLYLINE
  5
3F7
100
AcDbEntity
  8
025-DWG
100
AcDbPolyline
 90
        6
 70
     0
 43
0.0
 10
414.401242
 20
825.780554
 10
414.553029
 20
825.777976
 10
414.658691
 20
825.768093
 10
414.677869
 20
825.75468
 10
414.603239
 20
825.74286
 10
414.463305
 20
825.737148
  0
LWPOLYLINE
  5
3F8
100
AcDbEntity
  8
025-DWG
100
AcDbPolyline
 90
        6
 70
     0
 43
0.0
 10
414.463305
 20
825.737148
 10
414.323371
 20
825.731436
 10
414.24874
 20
825.719616
 10
414.267919
 20
825.706203
 10
414.373581
 20
825.69632
 10
414.525368
 20
825.693742
  0
LWPOLYLINE
  5
3F9
100
AcDbEntity
  8
025-DWG
100
AcDbPolyline
 90
        7
 70
     0
 43
0.0
 10
414.525368
 20
825.693742
 10
414.653601
 20
825.692167
 10
414.75579
 20
825.685199
 10
414.804551
 20
825.674704
 10
414.786821
 20
825.663496
 10
414.707349
 20
825.654576
 10
414.58743
 20
825.650336
  0
LWPOLYLINE
  5
3FA
100
AcDbEntity
  8
025-DWG
100
AcDbPolyline
 90
        6
 70
     0
 43
0.0
 10
414.58743
 20
825.650336
 10
414.447497
 20
825.644624
 10
414.372866
 20
825.632804
 10
414.392044
 20
825.619391
 10
414.497707
 20
825.609508
 10
414.649493
 20
825.60693
  0
LWPOLYLINE
  5
3FB
100
AcDbEntity
  8
025-DWG
100
AcDbPolyline
 90
        6
 70
     0
 43
0.0
 10
414.711556
 20
825.563523
 10
414.571622
 20
825.557812
 10
414.496991
 20
825.545992
 10
414.51617
 20
825.532578
 10
414.621832
 20
825.522695
 10
414.773619
 20
825.520117
  0
LWPOLYLINE
  5
3FC
100
AcDbEntity
  8
035-DWG
100
AcDbPolyline
 90
        3
 70
     0
 43
0.0
 10
413.274362
 20
825.090892
 10
413.886617
 20
825.079858
 10
414.498092
 20
825.068497
  0
LINE
  5
3FD
100
AcDbEntity
  8
025-DWG
100
AcDbLine
 10
414.896581
 20
825.478061
 30
0.0
 11
414.897745
 21
825.433305
 31
0.0
  0
LINE
  5
3FE
100
AcDbEntity
  8
025-DWG
100
AcDbLine
 10
415.020707
 20
825.391249
 30
0.0
 11
415.02187
 21
825.346493
 31
0.0
  0
LINE
  5
3FF
100
AcDbEntity
  8
025-DWG
100
AcDbLine
 10
415.144833
 20
825.304437
 30
0.0
 11
415.145996
 21
825.25968
 31
0.0
  0
LINE
  5
400
100
AcDbEntity
  8
025-DWG
100
AcDbLine
 10
415.268958
 20
825.217625
 30
0.0
 11
415.270122
 21
825.172868
 31
0.0
  0
LWPOLYLINE
  5
401
100
AcDbEntity
  8
025-DWG
100
AcDbPolyline
 90
        7
 70
     0
 43
0.0
 10
414.897745
 20
825.433305
 10
415.025978
 20
825.43173
 10
415.128166
 20
825.424762
 10
415.176928
 20
825.414268
 10
415.159198
 20
825.403059
 10
415.079726
 20
825.394139
 10
414.959807
 20
825.389899
  0
LWPOLYLINE
  5
402
100
AcDbEntity
  8
025-DWG
100
AcDbPolyline
 90
        6
 70
     0
 43
0.0
 10
415.02187
 20
825.346493
 10
415.173657
 20
825.343915
 10
415.279319
 20
825.334031
 10
415.298498
 20
825.320618
 10
415.223867
 20
825.308798
 10
415.083933
 20
825.303086
  0
LWPOLYLINE
  5
403
100
AcDbEntity
  8
025-DWG
100
AcDbPolyline
 90
        6
 70
     0
 43
0.0
 10
415.083933
 20
825.303086
 10
414.943999
 20
825.297375
 10
414.869368
 20
825.285555
 10
414.888547
 20
825.272142
 10
414.994209
 20
825.262258
 10
415.145996
 20
825.25968
  0
LWPOLYLINE
  5
404
100
AcDbEntity
  8
025-DWG
100
AcDbPolyline
 90
        7
 70
     0
 43
0.0
 10
415.145996
 20
825.25968
 10
415.274229
 20
825.258106
 10
415.376418
 20
825.251137
 10
415.42518
 20
825.240643
 10
415.407449
 20
825.229434
 10
415.327977
 20
825.220515
 10
415.208059
 20
825.216274
  0
LWPOLYLINE
  5
405
100
AcDbEntity
  8
025-DWG
100
AcDbPolyline
 90
        6
 70
     0
 43
0.0
 10
415.208059
 20
825.216274
 10
415.068125
 20
825.210562
 10
414.993494
 20
825.198742
 10
415.012672
 20
825.185329
 10
415.118335
 20
825.175446
 10
415.270122
 20
825.172868
  0
LWPOLYLINE
  5
406
100
AcDbEntity
  8
035-DWG
100
AcDbPolyline
 90
        6
 70
     0
 43
0.0
 10
415.270122
 20
825.172868
 10
415.410281
 20
825.170819
 10
415.51523
 20
825.162428
 10
415.551104
 20
825.150403
 10
415.50633
 20
825.138624
 10
415.395354
 20
825.130891
  0
LINE
  5
407
100
AcDbEntity
  8
035-DWG
100
AcDbLine
 10
415.395354
 20
825.130891
 30
0.0
 11
415.093442
 21
825.120215
 31
0.0
  0
LINE
  5
408
100
AcDbEntity
  8
025-DWG
100
AcDbLine
 10
415.093442
 20
825.120215
 30
0.0
 11
415.098602
 21
825.116606
 31
0.0
  0
LWPOLYLINE
  5
409
100
AcDbEntity
  8
025-DWG
100
AcDbPolyline
 90
        3
 70
     0
 43
0.0
 10
415.098499
 20
825.120394
 10
415.098551
 20
825.1185
 10
415.098602
 20
825.116606
  0
LWPOLYLINE
  5
40A
100
AcDbEntity
  8
025-DWG
100
AcDbPolyline
 90
        2
 70
     0
 43
0.0
 10
415.102472
 20
825.111274
 10
415.102222
 20
825.120526
  0
LWPOLYLINE
  5
40B
100
AcDbEntity
  8
035-DWG
100
AcDbPolyline
 90
        3
 70
     0
 43
0.0
 10
411.383758
 20
826.301053
 10
411.532252
 20
826.28066
 10
411.606512
 20
826.25737
  0
LINE
  5
40C
100
AcDbEntity
  8
035-DWG
100
AcDbLine
 10
411.606512
 20
826.25737
 30
0.0
 11
413.274362
 21
825.090892
 31
0.0
  0
LWPOLYLINE
  5
40D
100
AcDbEntity
  8
025-DWG
100
AcDbPolyline
 90
        3
 70
     0
 43
0.0
 10
412.778738
 20
826.406612
 10
413.21913
 20
826.346132
 10
413.439367
 20
826.277059
  0
LINE
  5
40E
100
AcDbEntity
  8
025-DWG
100
AcDbLine
 10
412.584256
 20
836.226177
 30
0.0
 11
412.778738
 21
826.406612
 31
0.0
  0
LINE
  5
40F
100
AcDbEntity
  8
025-DWG
100
AcDbLine
 10
413.606642
 20
835.419989
 30
0.0
 11
413.845898
 21
826.214566
 31
0.0
  0
LINE
  5
410
100
AcDbEntity
  8
025-DWG
100
AcDbLine
 10
413.523052
 20
826.218531
 30
0.0
 11
413.275937
 21
835.726348
 31
0.0
  0
LINE
  5
411
100
AcDbEntity
  8
025-DWG
100
AcDbLine
 10
413.180782
 20
836.226177
 30
0.0
 11
413.439367
 21
826.277059
 31
0.0
  0
LINE
  5
412
100
AcDbEntity
  8
035-DWG
100
AcDbLine
 10
415.288984
 20
835.241421
 30
0.0
 11
415.551237
 21
825.151167
 31
0.0
  0
LINE
  5
413
100
AcDbEntity
  8
025-DWG
100
AcDbLine
 10
415.167115
 20
835.241421
 30
0.0
 11
415.427112
 21
825.237979
 31
0.0
  0
LINE
  5
414
100
AcDbEntity
  8
025-DWG
100
AcDbLine
 10
415.045246
 20
835.241421
 30
0.0
 11
415.302986
 21
825.324791
 31
0.0
  0
LINE
  5
415
100
AcDbEntity
  8
025-DWG
100
AcDbLine
 10
414.923376
 20
835.241421
 30
0.0
 11
415.17886
 21
825.411604
 31
0.0
  0
LINE
  5
416
100
AcDbEntity
  8
025-DWG
100
AcDbLine
 10
414.801507
 20
835.241421
 30
0.0
 11
415.054735
 21
825.498416
 31
0.0
  0
LINE
  5
417
100
AcDbEntity
  8
025-DWG
100
AcDbLine
 10
414.679638
 20
835.241421
 30
0.0
 11
414.930609
 21
825.585228
 31
0.0
  0
LINE
  5
418
100
AcDbEntity
  8
025-DWG
100
AcDbLine
 10
414.557768
 20
835.241421
 30
0.0
 11
414.806483
 21
825.672041
 31
0.0
  0
LINE
  5
419
100
AcDbEntity
  8
025-DWG
100
AcDbLine
 10
413.826552
 20
835.241421
 30
0.0
 11
414.061729
 21
826.192914
 31
0.0
  0
LINE
  5
41A
100
AcDbEntity
  8
025-DWG
100
AcDbLine
 10
413.948421
 20
835.241421
 30
0.0
 11
414.185855
 21
826.106102
 31
0.0
  0
LINE
  5
41B
100
AcDbEntity
  8
025-DWG
100
AcDbLine
 10
414.070291
 20
835.241421
 30
0.0
 11
414.309981
 21
826.01929
 31
0.0
  0
LINE
  5
41C
100
AcDbEntity
  8
025-DWG
100
AcDbLine
 10
414.19216
 20
835.241421
 30
0.0
 11
414.434106
 21
825.932477
 31
0.0
  0
LINE
  5
41D
100
AcDbEntity
  8
025-DWG
100
AcDbLine
 10
414.314029
 20
835.241421
 30
0.0
 11
414.558232
 21
825.845665
 31
0.0
  0
LINE
  5
41E
100
AcDbEntity
  8
025-DWG
100
AcDbLine
 10
414.435899
 20
835.241421
 30
0.0
 11
414.682358
 21
825.758853
 31
0.0
  0
ELLIPSE
  5
41F
100
AcDbEntity
  8
025-DWG
100
AcDbEllipse
 10
411.82817
 20
836.2
 30
0.0
 11
0.0
 21
0.9999999999999998
 31
0.0
210
0.0
220
0.0
230
1.0
 40
0.756345
 41
-1.544616388014983
 42
0.0000000000000022
  0
ELLIPSE
  5
420
100
AcDbEntity
  8
025-DWG
100
AcDbEllipse
 10
412.188576
 20
836.2
 30
0.0
 11
0.0
 21
1.0
 31
0.0
210
0.0
220
0.0
230
1.0
 40
0.992546
 41
-1.54461638801498
 42
0.0
  0
POLYLINE
  5
421
100
AcDbEntity
  8
035-DWG
100
AcDb2dPolyline
 66
     1
 10
0.0
 20
0.0
 30
0.0
 70
     2
  0
VERTEX
  5
422
100
AcDbEntity
  8
035-DWG
100
AcDbVertex
100
AcDb2dVertex
 10
413.784598
 20
837.2
 30
0.0
 42
-0.020876
  0
VERTEX
  5
423
100
AcDbEntity
  8
035-DWG
100
AcDbVertex
100
AcDb2dVertex
 10
413.893279
 20
837.195492
 30
0.0
 42
-0.036607
 70
     1
  0
VERTEX
  5
424
100
AcDbEntity
  8
035-DWG
100
AcDbVertex
100
AcDb2dVertex
 10
413.954609
 20
837.185822
 30
0.0
 42
-0.048734
  0
VERTEX
  5
425
100
AcDbEntity
  8
035-DWG
100
AcDbVertex
100
AcDb2dVertex
 10
414.240324
 20
837.088927
 30
0.0
 42
-0.066082
 70
     1
  0
VERTEX
  5
426
100
AcDbEntity
  8
035-DWG
100
AcDbVertex
100
AcDb2dVertex
 10
414.429645
 20
836.9712
 30
0.0
 42
-0.046377
  0
VERTEX
  5
427
100
AcDbEntity
  8
035-DWG
100
AcDbVertex
100
AcDb2dVertex
 10
414.581883
 20
836.820301
 30
0.0
 42
-0.05931
 70
     1
  0
VERTEX
  5
428
100
AcDbEntity
  8
035-DWG
100
AcDbVertex
100
AcDb2dVertex
 10
414.673674
 20
836.679784
 30
0.0
 42
-0.023295
  0
VERTEX
  5
429
100
AcDbEntity
  8
035-DWG
100
AcDbVertex
100
AcDb2dVertex
 10
414.722818
 20
836.567812
 30
0.0
 42
-0.018578
 70
     1
  0
VERTEX
  5
42A
100
AcDbEntity
  8
035-DWG
100
AcDbVertex
100
AcDb2dVertex
 10
414.772471
 20
836.422778
 30
0.0
 42
-0.041424
  0
VERTEX
  5
42B
100
AcDbEntity
  8
035-DWG
100
AcDbVertex
100
AcDb2dVertex
 10
414.78809
 20
836.349462
 30
0.0
 42
-0.025085
 70
     1
  0
VERTEX
  5
42C
100
AcDbEntity
  8
035-DWG
100
AcDbVertex
100
AcDb2dVertex
 10
414.797595
 20
836.226177
 30
0.0
  0
SEQEND
  5
42D
100
AcDbEntity
  8
035-DWG
  0
LINE
  5
42E
100
AcDbEntity
  8
035-DWG
100
AcDbLine
 10
397.9
 20
837.2
 30
0.0
 11
397.9
 21
837.7
 31
0.0
  0
ENDSEC
  0
SECTION
  2
OBJECTS
  0
DICTIONARY
  5
1A
100
AcDbDictionary
  3
ACAD_GROUP
350
18
  3
ACAD_MLINESTYLE
350
19
  0
DICTIONARY
  5
18
102
{ACAD_REACTORS
330
1A
102
}
100
AcDbDictionary
  0
DICTIONARY
  5
19
102
{ACAD_REACTORS
330
1A
102
}
100
AcDbDictionary
  3
STANDARD
350
1D
  0
MLINESTYLE
  5
1D
102
{ACAD_REACTORS
330
19
102
}
100
AcDbMlineStyle
  2
STANDARD
 70
     0
  3

 62
     0
 51
90.0
 52
90.0
 71
     2
 49
0.5
 62
   256
  6
BYLAYER
 49
-0.5
 62
   256
  6
BYLAYER
  0
ENDSEC
  0
EOF
